S Oasis

Shakermaker bass

Oasis

Album:Definitely Maybe

Year:1994

tools Ultimate Tabs

Start AutoScroll Font Size Down Font Size Up

Find us on Facebook

Ultimate-Tabs

Shakermaker

                                                         ----Shakermaker----
                                                                        -Oasis-

Its surprising there isn't a bass tab on here already, its really quite easy.


No bass in intro

Bass Intro:

G|---------------------------------------------------------------|
D|-----------------2-2-2-2-2-2-2-2-------------------------------|
A|-0-0-0-0-0-0-0-0-----------------2--2-2--2-2-2-----------------|
E|-----------------------------------------------2-2-2-2-2-2-2-2-|

Verse Riff:

G|------------------------------------------------------------|
D|------------------------------------------------------------|
A|-2--2-2--2-2-2-2--2-2--2-2-2-2--2-2--2-2-2-2--2-2--2-2-2----|
E|------------------------------------------------------------|

G|------------------------------------------------------------|
D|-2--2-2--2-2-2-2--2-2--2-2-2--------------------------------|
A|-------------------------------2--2-2--2-2-2-2--2-2--2-2-2--|
E|------------------------------------------------------------|


Chorus Riff:


G|------------------------------------------------|
D|-----------------2-2-2-2-2-2-2-2----------------|
A|-0-0-0-0-0-0-0-0-----------------2--2-2--2-2-2--|
E|------------------------------------------------|     x2

G|-----------------|
D|-----------------|
A|-----------------|
E|-2-2-2-2-2-2-2-2-|

In last chorus, do first bit x3 then skip to last bit of middle riff


Solo:


G|---------------------------------------------------------------|
D|---------------------------------------------------------------|
A|-2--2-2--2-2-2-2--2-2--2-2-2-2--2-2--2-2-2-2--2-2--2-2-2-------|
E|---------------------------------------------------------------|


G|---------------------------------------------------------------|
D|---------------------------------------------------------------|
A|-----------------------------2--2-2--2-2-2-2--2-2--2-2-2-------|
E|-0--0-0--0-0-0-0--0-0--0-0-0-----------------------------------|


G|---------------------------------------------------------------|
D|-----------------2-2-2-2-2-2-2-2-------------------------------|
A|-0-0-0-0-0-0-0-0-----------------2--2-2--2-2-2-----------------|
E|-----------------------------------------------2-2-2-2-2-2-2-2-|


Middle riff:

G|----------------------------------------|
D|-0-0-0-0--------------------------------|
A|---------0-0-0-0-2-2-2-2-2-2-2-2--------|
E|----------------------------------------|       x3

G|---------------------------------|
D|-----------------2-2-2-2-2-2-2-2-|
A|-0-0-0-0-0-0-0-0-----------------|
E|---------------------------------|

G|-------------------|
D|-----------------2-|
A|-0-0-0-0-0-0-0-0---|
E|-------------------|

Structure:

Bass Intro
Verse
Chorus
Verse
Chorus
Solo
Middle Riff
-Pause-
Bass Intro
Verse
Last chorus
Song continues but bass stops there

F.M. 11/5/09
less
plus
Add to Songbook Print Version How to play lesson Submit videolesson
Click the best TAGS for this song:
None of them
Contributor: dakosqua Correct

If you can not find the chords or tabs you want, look at our partner E-chords. If you are a premium member, you have total access to our video lessons.

If you find a wrong Bad To Me from Oasis, click the correct button above.

login/signup
my songbooks
my recent views
my submits