S Oasis

Supersonic bass

Oasis

Album:Definitely Maybe

Year:1994

tools Ultimate Tabs

Start AutoScroll Font Size Down Font Size Up

Find us on Facebook

Ultimate-Tabs

Supersonic

Supersonic from the album Definately Maybe.
I' m sure this tab is right.
Come in when the singing starts.

"I need to be myself..."
G|--------------------------------|
D|--------------------------------|
A|--------------------------------|
E|-0h2-2-2-0-2--2--5-5-5-7-7-7-7--|x8

"You need to find..."
G|---------------------------------------------------------------------------|
D|---------------------------------------------------------------------------|
A|---------------------------------------------------------------------------|
E|-0-0-0-0-0-0-0-0-0-0-0-0-0-0-0-0-2-2--0-2-2--0-2-2-2-0-2-0-2-2-0-0-0-0-0-0-|

G|-----------------------------------------------------|
D|-----------------------------------------------------|
A|-----------------------------------------------------|
E|-0-0-0-0-0-0-0-0-0-0-9-9-9-9-9-9-9-9-9-9-9-9-9-9-9-9-|

"Cos my friend said..."
G|---------------------------------|
D|---------------------------------|
A|-5-5-5-5-------------------------|
E|---------5-5-5-5-0-0-0-2-2-2-2-2-|x4

Solo:
G|---------------------------------|
D|---------------------------------|
A|-5-5-5-5-------------------------|
E|---------5-5-5-5-0-0-0-2-2-2-2-2-|x4

G|----------------------------------------------|
D|----------------------------------------------|
A|--------------------------4-------------------|
E|---0------------------------------------------|

"You need to be..."
G|--------------------------------|
D|--------------------------------|
A|--------------------------------|
E|-0h2-2-2-0-2--2--5-5-5-7-7-7-7--|x8


"When she finds out..."
G|---------------------------------------------------------------------------|
D|---------------------------------------------------------------------------|
A|---------------------------------------------------------------------------|
E|-0-0-0-0-0-0-0-0-0-0-0-0-0-0-0-0-2-2--0-2-2--0-2-2-2-0-2-0-2-2-0-0-0-0-0-0-|

G|-----------------------------------------------------|
D|-----------------------------------------------------|
A|-----------------------------------------------------|
E|-0-0-0-0-0-0-0-0-0-0-9-9-9-9-9-9-9-9-9-9-9-9-9-9-9-9-|

"Cos my friend said..."
G|---------------------------------|
D|---------------------------------|
A|-5-5-5-5-------------------------|
E|---------5-5-5-5-0-0-0-2-2-2-2-2-|x4

Solo:
G|---------------------------------|
D|---------------------------------|
A|-5-5-5-5-------------------------|
E|---------5-5-5-5-0-0-0-2-2-2-2-2-|

Play the solo part for the rest of the song.
less
plus
Add to Songbook Print Version How to play lesson Submit videolesson
Click the best TAGS for this song:
None of them
Contributor: H.Aaindi Correct

If you can not find the chords or tabs you want, look at our partner E-chords. If you are a premium member, you have total access to our video lessons.

If you find a wrong Bad To Me from Oasis, click the correct button above.

login/signup
my songbooks
my recent views
my submits