S Oasis

Up in the sky chords

Oasis

Album:Definitely Maybe

Year:1994

tools Ultimate Tabs

Start AutoScroll Font Size Down Font Size Up

Find us on Facebook

chords
tabs bass ukulele keyboards
drums
flute
harmonica
guitar pro video
Ultimate-Tabs

Up in the sky

Chords used: 

	 EADGBe 
G	(3x0033) 
Fadd9	(xx3213) 
C	(x32010) 
Cadd6	(x32013) 
C5	(x3555x) 
A7/C#	(x42020)  can also be played easier as (x456xx) 
D	(x57775) 
Em	(x79987) 
Here's the tab for the riff that is played through all the "G" 
chords during the verses of the song:  (I'll call it "Main Riff"): 

e|----------------------------------------| 
B|----------------------------------------| 
G|------0-----------0-----0---------------|  (this repeats a bunch of times) 
D|---------------3---------------3--5-----| 
A|---------3--5-------------3--5----------| 
E|---3-----------------3---------------3--| 

Also, there is a little fill played during each "Fadd9" and the "Cadd6" 
during the verses: 

   Fadd9      Cadd6 
e|--3----3-----3----3-----| 
B|--1-------1--1-------1--| 
G|--2----------0----------|  (then back to "main riff") 
D|--3----------2----------| 
A|-------------3----------| 
E|------------------------|
Verse 1 ------- NOTE: the above riffs are played by a 2nd guitar while the other guitar plays the below chords G Hey you! Up in the sky, learning to fly, tell me how high Fadd9 Cadd6 G Do you think you'll go, before you start fallin' G Hey you! Up in the tree, you wanna be me, well that couldn't be Fadd9 Cadd6 G 'cos the people here, they don't hear you callin' C A7/C# How does it feel G (w/ main riff) When you're inside me. Verse 2 ------- same chords and riffs used as verse 1 Hey you! wearing the crown, making no sound, I heard you feel down Well that's too bad, welcome to my world Hey you! stealing the light, I heard that the shine's gone out of your life Well that's just too bad, welcome to my world C A7/C# So how does it feel G When you're inside me? Bridge ------ D Em D C5 You'll need assistance with the things that you have never ever seen D It's just a case of never breathing out Em D C5 Before you've breathed it in A7/C# C G So how does it feel when you're inside me
e|--0---0--0--0--0---0---0---0-----0---0--0--0--0--0--0--0------------------| 
B|--2---2--0--2--3---2---0---2-----1---1--0--1--3--1--0--1------------------| 
G|--0---0--0--0--0---0---0---0-----0---0--0--0--0--0--0--0----------main----| 
D|--2---2--2--2--2---2---2---2-----2---2--2--2--2--2--2--2----------riff----| 
A|--4---4--4--4--4---4---4---4-----3---3--3--3--3--3--3--3------------------| 
E|--------------------------------------------------------------------------| 

NOTE: the above tab is a combination of the chords played by guitar 1 and 
the fill played by guitar 2. It sounds cool if you're only playing with 
one guitar (that is, if you're not playing with somebody else)  :)  
REPEAT VERSE 1 Chorus BRIDGE
less
plus
Add to Songbook Print Version How to play lesson Submit videolesson
Click the best TAGS for this song:
None of them
Contributor: andrmuhr Correct

If you can not find the chords or tabs you want, look at our partner E-chords. If you are a premium member, you have total access to our video lessons.

If you find a wrong Bad To Me from Oasis, click the correct button above.

login/signup
my songbooks
my recent views
my submits