S Oasis

Who Feels Love ? tab

Oasis

tools Ultimate Tabs

Start AutoScroll Font Size Down Font Size Up

Find us on Facebook

chords
tabs
bass
ukulele keyboards
drums
flute
harmonica
guitar pro
video
Ultimate-Tabs

Who Feels Love ?

VERSE 1

G
Found what I lost inside
G
My spirit has been purified
G
Take a thorn from my pride and
G
Hand in hand we'll take a walk outside
Bb6                                 Am7
Thank you for the sun, the one that shines on everyone
    Cadd9       G/B
Who feels love
    Bb6                                Am7
Now there's a million years between my fantasies and fears  
  G
I feel love

VERSE 2

G
Leaving all that I see
G
Now all my emotions fill the air I breathe
Bb6                         Am7                           Cadd9       G/B
Now you understand that this is not the promised land they spoke of
       Bb6                             Am7               G      
Theres nothing more to be if you could be the remedy who heals love
GUITAR BRIDGE

----3---------3---------3--------3---
--3---------3---------3--------3-----
0-----0------------------------------
---------3------3--2--------0--------
-------------------------------------
-------------------------------------

(x3, then;)

----3---------3---------3--------3--------3-------3---
--3---------3---------3--------3--------3-------3-----
0-----0-----------------------------------------------
---------3------3--2--------2--------1-------1--------
------------------------------------------------------
------------------------------------------------------


SOLO (OVER G Bb6 Am7)

---------------7--8--7--
---------6--8-----------
4--5--7-----------------
------------------------
------------------------
------------------------

(x3)

SOLO 2 (OVER CHORUS CHORDS)

E--10-10-10-10-10-10-10-10\8---
B----------------------------8-

(x8, then over next chorus)

OUTRO CHORUS

Bb6                                 Am7
Thank you for the sun, the one that shines on everyone
    Cadd9       G/B
Who feels love
    Bb6                                Am7
Now there's a million years between my fantasies and fears
   Cadd9        G/B
I feel love
Bb6                                 Am7
Thank you for the sun, the one that shines on everyone
    Cadd9       G/B
Who feels love
    Bb6                                Am7
Now there's a million years between my fantasies and fears
  G
I feel love

(REPEAT GUITAR BRIDGE TO FADE)

_____________________________________________
Transcribed by David Lane ([email protected])
less
plus
Add to Songbook Print Version How to play lesson Submit videolesson
Click the best TAGS for this song:
None of them
Contributor: robeLiqu Correct

If you can not find the chords or tabs you want, look at our partner E-chords. If you are a premium member, you have total access to our video lessons.

If you find a wrong Bad To Me from Oasis, click the correct button above.

login/signup
my songbooks
my recent views
my submits