Oceana

Family Disease tab

Oceana

tools Ultimate Tabs

Start AutoScroll Font Size Down Font Size Up

Find us on Facebook

chords
tabs
bass
ukulele
keyboards
drums
flute
harmonica
guitar pro video
Ultimate-Tabs

Family Disease

tabbed by: Shane Henderson

t= tap..
/= slide


intro/Chorus: guitar 1

    t         t       t            t      t
D|------------------------------------------------|
A|----------------10------------------------------|
F|------------12------12--7---------------14~-----|
C|--12--5--8-----------------7-----12--5----------|
G|------------------------------8-----------------|
C|------------------------------------------------|

       t         t       t            t      t
D|------------------------------------------------|
A|-------------------10---------------------------|
F|--7------------12------12--7---------------14~--|
C|-----12--5--8-----------------7-----12--5-------|
G|---------------------------------8--------------|
C|------------------------------------------------|

       t         t       t            t      t
D|------------------------------------------------|
A|-------------------10---------------------------|
F|--7------------12------12--7---------------14~--|
C|-----12--5--8-----------------7-----12--5-------|
G|---------------------------------8--------------|
C|------------------------------------------------|

       t         t       t            t      t
D|------------------------------------------------|
A|------------------10----------------------------|
F|--7-----------12------12--7---------------14~---|
C|-----12--5--8-----------------7-----12--5-------|
G|---------------------------------8--------------|
C|------------------------------------------------|

Chorus: guitar 2
D|------------------------------------------------|
A|------------------------------------------------|
F|------------------------------------------------|
C|--5------10------0-----1------3-----------------|
G|--5 x16--10 x16--0 x3--1 x13--3 x16-------------|
C|--5------10------0-----1------3-----------------|

  verse: guitar 1: x4 (play second time around)
D|------------------------------------------------|
A|--------8---------------------------------------|
F|-----7-----7~-----7-----------------------------|
C|--10----------10-----10-------------------------|
G|------------------------------------------------|
C|------------------------------------------------|

  verse: guitar 2:  (x2)
D|------------------------------------------------|
A|------------------------------------------------|
F|------------------------------------------------|
C|--1~--12~--1~--3~-------------------------------|
G|--1~--10~--1~--3~-------------------------------|
C|--1~--10~--1~--3~-------------------------------|

D|------------------------------------------------|
A|------------------------------------------------|
F|------------------------------------------------|
C|--1~--1~----------------------------------------|
G|--1~--1~----------------------------------------|
C|--1~--1~----------------------------------------|

 then play:
 Chorus x2
 verse x2
 Chorus x2


guitar 2: i watched you choke.....
D|------------------------------------------------|
A|------------------------------------------------|
F|------------------------------------------------|
C|------------------------------------------------|
G|------------------------------------------------|
C|--5--8--1--10----5--8--1--10--12----------------|

  I WATCHED YOU CHOKE!!!
D|------------------------------------------------|
A|------------------------------------------------|
F|------------------------------------------------|
C|--5--8--1--10----5--8--1--10--12----------------|
G|--5--8--1--10----5--8--1--10--12----------------|
C|--5--8--1--10----5--8--1--10--12----------------|

D|------------------------------------------------|
A|------------------------------------------------|
F|------------------------------------------------|
C|--1~--------------------------------------------|
G|--1~--------------------------------------------|
C|--1~--------------------------------------------|

 guitar 1: x2 I WATCHED YOU CHOKE!!
D|------------------------------------------------------|
A|------------------------------------------------------|
F|---------------------------5---5~---------------------|
C|---------7----7-------5--8---8------------------------|
G|----8/10---10---10~-------------------3/5-6-5-6-5~----|
C|--5-----------------8--------------1------------------|

D|------------------------------------------------------|
A|-----------------------10~----------------------------|
F|--------------------7---------------------------------|
C|----------7--8--10------------------------------------|
G|------10----------------------------------------------|
C|--10--------------------------------------------------|


Chorus x2

 Outro:
D|------------------------------------------------|
A|------------------------------------------------|
F|------------8888888---------------8888888-------|
C|--5/--5-5/--7777777--1--5/--5-5/--7777777-------|
G|--5/--5-5/--6666666--1--5/--5-5/--6666666-------|
C|--5/--5-5/-----------1--5/--5-5/----------------|
less
plus
Add to Songbook Print Version How to play lesson Submit videolesson
Click the best TAGS for this song:
None of them
Contributor: gilscord Correct

If you can not find the chords or tabs you want, look at our partner E-chords. If you are a premium member, you have total access to our video lessons.

If you find a wrong Bad To Me from Oceana, click the correct button above.

login/signup
my songbooks
my recent views
my submits