Oficina G3

Preciso Voltar tab

Oficina G3

Album:O Tempo

Year:2000

tools Ultimate Tabs

Start AutoScroll Font Size Down Font Size Up

Find us on Facebook

chords
tabs
bass ukulele keyboards
drums
flute
harmonica
guitar pro
video
Ultimate-Tabs

Preciso Voltar

Intro: F A G (2x) 
 
a primeira parte do solo da musica 
E|----3~-6-3h-------------------------- 
B|------------6-3h--------------------- 
G|-----------------6-5-3--------------- 
D|------------------------5-3---------- 
A|----------------------------5-3s--1-- 
E|------------------------------------- 
 
essa e a continuao do solo 
E|---7~-3s-5-3~---------------9b-10b-12b-14b------ 
B|-----------------8b-10b-12b--------------------- 
G|------------------------------------------------ 
D|------------------------------------------------ 
A|------------------------------------------------ 
E|------------------------------------------------ 
 
less
plus
Add to Songbook Print Version How to play lesson Submit videolesson
Click the best TAGS for this song:
None of them
Contributor: Yvoncork Correct

If you can not find the chords or tabs you want, look at our partner E-chords. If you are a premium member, you have total access to our video lessons.

If you find a wrong Bad To Me from Oficina G3, click the correct button above.

login/signup
my songbooks
my recent views
my submits