One Ok Rock

Deeper Deeper bass

One Ok Rock

tools Ultimate Tabs

Start AutoScroll Font Size Down Font Size Up

Find us on Facebook

chords
tabs
bass
ukulele
keyboards
drums
flute
harmonica
guitar pro video
Ultimate-Tabs

Deeper Deeper

-------------------------------------------------------------------------------
                             「Deeper Deeper」 - One Ok Rock
-------------------------------------------------------------------------------
Tabbed by: ahoynickrad  

A really fun song to play! I'll be uploading the guitar tabs for this
soon as well :)

Tuning: EADG

Intro 
G|------------------------------------|
D|------------------------------------|
A|------------------------------------|
E|0-0-6-0-3-0-5--3-3---3-5-3-3--------| x4
P.M. .  .  .  .  .  .  .  . .  .

Verse 1
G|------------------------------------|
D|------------------------------------|
A|------------------------------------|
E|0-0-6-0-3-0-5--3-3---3-5-3-3--------| x4

G|------------------------------------|
D|------------------------------------|
A|------------------------------------|
E|0-0-6-0-3-0-5--3-3---3-5-3-3--------| x1
P.M. .  .  .  .  .  .  .  . .  .

G|------------------------------------|
D|------------------------------------|
A|------------------------------------|
E|0-0-6-0-3-0-5--3-3---3-5-3-3--------| x1

G|------------------------------------|
D|------------------------------------|
A|------------------------------------|
E|0-0-6-0-3-0-5--3-3---3-5-3-3--------| x1
P.M. .  .  .  .  .  .  .  . .  .

G|------------------------------------|
D|------------------------------------|
A|------------------------------------|
E|0-0-6-0-3-0-5--3-3---3-5-3-3--------| x1

G|------------------------------------|
D|------------------------------------|
A|------------------------------------|
E|0-0-6-0-3-0-5--3-3---3-5-3-3--------| x1
P.M. .  .  .  .  .  .  .  . .  .

G|------------------------------------|
D|------------------------------------|
A|------------------------------------|
E|0-0-6-0-3-0-5--3-3---3-5-3-3--------| x1

G|------------------------------------|
D|------------------------------------|
A|------------------------------------|
E|0-0-6-0-3-0-5--3-3---3-5-3-3--------| x1
P.M. .  .  .  .  .  .  .  . .  .

G|------------------------|
D|------------------------|
A|------------------------|
E|0-0-6-0-3-0-5-00000000--| x1


Chorus
G|---------------------------------------------------------------------------|
D|---------------------------------------------------------------------------|
A|33333333-22225555---------------------33333333-22225555--------------------|
E|-------------------00000000-33333333--------------------00000000-33333333--| x4

Midtro
G|------------------------------------|
D|------------------------------------|
A|------------------------------------|
E|0-0-6-0-3-0-5--3-3---3-5-3-3--------| x2

Pause

G|------------------------------------|
D|------------------------------------|
A|------------------------------------|
E|0-0-6-0-3-0-5--3-3---3-5-3-3--------| x1

Pause

G|------------------------------------|
D|------------------------------------|
A|------------------------------------|
E|0-0-6-0-3-0-5--3-3---3-5-3-3--------| x1

G|------------------------------------|
D|------------------------------------|
A|------------------------------------|
E|0-0-6-0-3-0-5--3-3---3-5-3-3--------| x1
P.M. .  .  .  .  .  .  .  . .  .

G|------------------------------------|
D|------------------------------------|
A|------------------------------------|
E|0-0-6-0-3-0-5--3-3---3-5-3-3--------| x1

G|------------------------------------|
D|------------------------------------|
A|------------------------------------|
E|0-0-6-0-3-0-5--3-3---3-5-3-3--------| x1
P.M. .  .  .  .  .  .  .  . .  .

Chorus
G|---------------------------------------------------------------------------|
D|---------------------------------------------------------------------------|
A|33333333-22225555---------------------33333333-22225555--------------------|
E|-------------------00000000-33333333--------------------00000000-33333333--| x4

Bridge
G|------------------------------------------------|
D|------------------------------------------------|
A|-----------------------------5-7---------5-7----|
E|5-5-5--5-5-5--5-5-5-5--0-3-5------0-3-5---------| x3

G|-----------------------------------------------------|
D|-----------------------------------------------------|
A|-----------------------------------------------------|
E|5-5-5--5-5-5--5-5-5-5--7-7-7--7-7-7--7-6-5--0-3------| x1

Breakdown
G|------------------------------------------------|
D|------------------------------------------------|
A|-----------------------------5-7---------5-7----|
E|5-5-5--5-5-5--5-5-5-5--0-3-5------0-3-5---------| x4
P.M. .  .  .  .  .  .  .  .  .  .  .  .  .  . .

G|------------------------------------------------|
D|------------------------------------------------|
A|-----------------------------5-7---------5-7----|
E|5-5-5--5-5-5--5-5-5-5--0-3-5------0-3-5---------| x12

Pause

Chorus
G|---------------------------------------------------------------------------|
D|---------------------------------------------------------------------------|
A|33333333-22225555---------------------33333333-22225555--------------------|
E|-------------------00000000-33333333--------------------00000000-33333333--| x4

G|------------------------------------|
D|------------------------------------|
A|------------------------------------|
E|0-0-6-0-3-0-5--3-3---3-5-3-3--------| x2

| /  slide up
| \  slide down
| h  hammer-on
| p  pull-off
| ~  vibrato
| +  harmonic
| x  Mute note
===============================================================================
less
plus
Add to Songbook Print Version How to play lesson Submit videolesson
Click the best TAGS for this song:
None of them
Contributor: peardlpi Correct

If you can not find the chords or tabs you want, look at our partner E-chords. If you are a premium member, you have total access to our video lessons.

If you find a wrong Bad To Me from One Ok Rock, click the correct button above.

login/signup
my songbooks
my recent views
my submits