One Ok Rock

The Beginning (acoustic) chords

One Ok Rock

tools Ultimate Tabs

Start AutoScroll Font Size Down Font Size Up

Find us on Facebook

chords
tabs
bass
ukulele keyboards
drums
flute
harmonica
guitar pro
video
Ultimate-Tabs

The Beginning (acoustic)

INTRO 

        e|-----0~-------| 
        B|----1~--------| 
        G|---2~---------| 
        D|--2~----------| 
        A|-0~-----------| 
        E|--------------| 

VERSE-Chorus 

        e|--0-00-0-00-0-00--0-00-0-00-0-00---|\ 
        B|--1-11-1-11-1-11--1-11-1-11-1-11---| \ 
        G|--2-22-2-22-2-22--2-22-2-22-2-22---|  \ 
        D|--2-22-2-22-2-22--3-33-3-33-3-33---|   \ 
        A|--0-00-0-00-0-00--3-33-3-33-3-33---|    \ 
        E|-----------------------------------|     \ 
                                                    >    2x 
        e|--0-00-0-00-0-00--3-33-3-33-3-33---|     / 
        B|--1-11-1-11-1-11--3-33-3-33-3-33---|    / 
        G|--0-00-0-00-0-00--0-00-0-00-0-00---|   / 
        D|--2-22-2-22-2-22--0-00-0-00-0-00---|  / 
        A|--3-33-3-33-3-33--2-22-2-22-2-22---| / 
        E|------------------3-33-3-33-3-33---|/ 

        e|-X-X-X-X-------| 
        B|-X-X-X-X-------| 
        G|-X-X-X-X-------| 
        D|-X-X-X-X-------| 
        A|-X-X-X-X-------| 
        E|-X-X-X-X-------| 

INTERLUDE 

        e|--0-00-0-00-0-00-0-00-3-33-3-33-3--| 
        B|--1-11-1-11-1-11-1-11-3-33-3-33-3--| 
        G|--2-22-2-22-2-22-0-00-0-00-0-00-0--|    3x 
        D|--2-22-3-33-3-33-2-22-0-00-0-00-0--| 
        A|--0-00-3-33-3-33-3-33-2-22-2-22-2--| 
        E|----------------------3-33-3-33-3--| 

        e|-----------------------------------| 
        B|--1-11-1-11-1-11-3-33-3-33-3-33-3--| 
        G|--2-22-2-22-2-22-4-44-4-44-4-44-4--| 
        D|--3-33-3-33-3-33-5-55-5-55-5-55-5--| 
        A|--3-33-3-33-3-33-5-55-5-55-5-55-5--| 
        E|-----------------------------------| 

VERSE 

        e|--0-00-0-00-0-00--0-00-0-00-0-00---|\ 
        B|--1-11-1-11-1-11--1-11-1-11-1-11---| \ 
        G|--2-22-2-22-2-22--2-22-2-22-2-22---|  \ 
        D|--2-22-2-22-2-22--3-33-3-33-3-33---|   \ 
        A|--0-00-0-00-0-00--3-33-3-33-3-33---|    \ 
        E|-----------------------------------|     \ 
                                                    >    2x 
        e|--0-00-0-00-0-00--3-33-3-33-3-33---|     / 
        B|--1-11-1-11-1-11--3-33-3-33-3-33---|    / 
        G|--0-00-0-00-0-00--0-00-0-00-0-00---|   / 
        D|--2-22-2-22-2-22--0-00-0-00-0-00---|  / 
        A|--3-33-3-33-3-33--2-22-2-22-2-22---| / 
        E|------------------3-33-3-33-3-33---|/ 

REFRAIN 

        e|--------------------------------| 
        B|-1-1-------3-3-------1-1--------| 
        G|-2-2-PAUSE-4-4-PAUSE-2-2-PAUSE--| 
        D|-3-3-------5-5-------3-3--------| 
        A|-3-3-------5-5-------3-3--------| 
        E|--------------------------------| 
         
        e|------0~--0-0-0-0-0---| 
        B|-----0~---0-0-0-0-0---| 
        G|----1~----1-1-1-1-1---| 
        D|---2~-----2-2-2-2-2---| 
        A|--2~------2-2-2-2-2---| 
        E|-0~-------0-0-0-0-0---| 

Chorus 

        e|--0-00-0-00-0-00--0-00-0-00-0-00---| 
        B|--1-11-1-11-1-11--1-11-1-11-1-11---| 
        G|--2-22-2-22-2-22--2-22-2-22-2-22---| 
        D|--2-22-2-22-2-22--3-33-3-33-3-33---| 
        A|--0-00-0-00-0-00--3-33-3-33-3-33---| 
        E|-----------------------------------| 
                                               
        e|--0-00-0-00-0-00--3-33-3-33-3-33---| 
        B|--1-11-1-11-1-11--3-33-3-33-3-33---| 
        G|--0-00-0-00-0-00--0-00-0-00-0-00---| 
        D|--2-22-2-22-2-22--0-00-0-00-0-00---| 
        A|--3-33-3-33-3-33--2-22-2-22-2-22---| 
        E|------------------3-33-3-33-3-33---| 

        e|--0-00-0-00-0-00--0-00-0-00-0-00---| 
        B|--1-11-1-11-1-11--1-11-1-11-1-11---| 
        G|--2-22-2-22-2-22--2-22-2-22-2-22---| 
        D|--2-22-2-22-2-22--3-33-3-33-3-33---| 
        A|--0-00-0-00-0-00--3-33-3-33-3-33---| 
        E|-----------------------------------| 
                                               
        e|--0-00-0-00-0-00--3-33-3-33-X-XX---| 
        B|--1-11-1-11-1-11--3-33-3-33-4-44---| 
        G|--0-00-0-00-0-00--4-44-4-44-X-XX---| 
        D|--2-22-2-22-2-22--5-55-5-55-6-66---| 
        A|--3-33-3-33-3-33--5-55-5-55-6-66---| 
        E|-----------------------------------| 

REPEAT INTERLUDE 

VERSE2 

        e|--0~---------------0~--------------| 
        B|--1~---------------1~--------------| 
        G|--2~---------------2~--------------| 
        D|--2~---------------3~--------------| 
        A|--0~---------------3~--------------| 
        E|-----------------------------------| 
                                               
        e|--0-00-0-00-0-00--3-33-3-33-3-33---| 
        B|--1-11-1-11-1-11--3-33-3-33-3-33---| 
        G|--0-00-0-00-0-00--0-00-0-00-0-00---| 
        D|--2-22-2-22-2-22--0-00-0-00-0-00---| 
        A|--3-33-3-33-3-33--2-22-2-22-2-22---| 
        E|------------------3-33-3-33-3-33---| 

        e|--0-00-0-00-0-00--0-00-0-00-0-00---| 
        B|--1-11-1-11-1-11--1-11-1-11-1-11---| 
        G|--2-22-2-22-2-22--2-22-2-22-2-22---| 
        D|--2-22-2-22-2-22--3-33-3-33-3-33---| 
        A|--0-00-0-00-0-00--3-33-3-33-3-33---| 
        E|-----------------------------------| 
                                               
        e|--0-00-0-00-0-00--3-33-3-33-3-33---| 
        B|--1-11-1-11-1-11--3-33-3-33-3-33---| 
        G|--0-00-0-00-0-00--0-00-0-00-0-00---| 
        D|--2-22-2-22-2-22--0-00-0-00-0-00---| 
        A|--3-33-3-33-3-33--2-22-2-22-2-22---| 
        E|------------------3-33-3-33-3-33---| 

REPEAT REFRAIN 
REPEAT Chorus   2x 

ADLIB 

        e|-----------------------| 
        B|-----------------------| 
        G|--101010-999-----------|    3x 
        D|--x-x-x--xxx-7-7-------| 
        A|--8-8-8--777-7-7-(x12)-| 
        E|-------------5-5-------| 

        e|-------------------------| 
        B|-------------------------| 
        G|--4444-555-77777777777---| 
        D|--xxxx-xxx-xxxxxxxxxxx---| 
        A|--2222-333-55555555555---| 
        E|-------------------------| 

        e|-----------------------------| 
        B|-----------------------------| 
        G|--141414-121212--------------| 
        D|--x-x-x--x-x-x--10-10--------|    2x  
        A|--121212-101010-10-10-(x12)--| 
        E|----------------8--8---------| 
         
        e|---------------------------------| 
        B|---------------------------------| 
        G|--141414-121212-5-5-------7--9~--| 
        D|--x-x-x--x-x-x--x-x-(x11)-x--x~--|  
        A|--121212-101010-3-3-------5--7~--| 
        E|---------------------------------|     

BRIDGE 

        e|------0~--------1~-------0~--------3~---| 
        B|-----1~--------1~-------1~--------3~----| 
        G|----2~--------2~-------0~--------0~-----|    2x 
        D|---2~--------3~-------2~--------0~------| 
        A|--0~--------3~-------3~--------2~-------| 
        E|-----------1~-----------------3~--------| 
         
REPEAT Chorus   2x 

Chorus2  

        e|--0-00-0-00-0-00--3-33-3-33-3-33--| 
        B|--1-11-1-11-1-11--3-33-3-33-3-33--| 
        G|--2-22-2-22-2-22--0-00-0-00-0-00--| 
        D|--3-33-3-33-3-33--0-00-0-00-0-00--| 
        A|--3-33-3-33-3-33--2-22-2-22-2-22--| 
        E|------------------3-33-3-33-3-33--| 
                                               
        e|--0-00-0-00-0-00--0-00-0-00-0-00--| 
        B|--1-11-1-11-1-11--1-11-1-11-1-11--| 
        G|--0-00-0-00-0-00--2-22-2-22-2-22--| 
        D|--2-22-2-22-2-22--2-22-2-22-2-22--| 
        A|--3-33-3-33-3-33--0-00-0-00-0-00--| 
        E|----------------------------------| 

        e|--0-00-0-00-0-00--3-33-3-33-3-33--| 
        B|--1-11-1-11-1-11--3-33-3-33-3-33--| 
        G|--2-22-2-22-2-22--0-00-0-00-0-00--| 
        D|--3-33-3-33-3-33--0-00-0-00-0-00--| 
        A|--3-33-3-33-3-33--2-22-2-22-2-22--| 
        E|------------------3-33-3-33-3-33--| 

        e|--0-00-0-00-0-00-------1~--| 
        B|--0-00-0-00-0-00------1~---| 
        G|--1-11-1-11-1-11-----2~----| 
        D|--2-22-2-22-2-22----3~-----| 
        A|--2-22-2-22-2-22---3~------| 
        E|------------------1~-------| 

OUTRO 

        e|------0~----| 
        B|-----1~-----| 
        G|----2~------| 
        D|---2~-------| 
        A|--0~--------| 
        E|------------| 

END 



Please Rate,... :D  
less
plus
Add to Songbook Print Version How to play lesson Submit videolesson
Click the best TAGS for this song:
None of them
Contributor: ansidomi Correct

If you can not find the chords or tabs you want, look at our partner E-chords. If you are a premium member, you have total access to our video lessons.

If you find a wrong Bad To Me from One Ok Rock, click the correct button above.

login/signup
my songbooks
my recent views
my submits