Otis Redding

I've Got Dreams To Remember bass

Otis Redding

tools Ultimate Tabs

Start AutoScroll Font Size Down Font Size Up

Find us on Facebook

chords
tabs
bass
ukulele keyboards
drums
flute
harmonica
guitar pro
video
Ultimate-Tabs

I've Got Dreams To Remember

I'VE GOT DREAMS TO REMEMBER (Bassline)

As recorded by Otis Redding
(From the 1968 Album THE IMMORTAL OTIS REDDING)

Words and Music by Otis Redding & Zelma Redding
Transcribed by Slowhand


Gtr I (E A D G) - 'Donald "Duck" Dunn - Bass'


 Intro            1st, 2nd & 4th Verses
  Q.=52
               $
 12/8
  Gtr I
  W                H.      H.        H.      H.        H.      H.
|--------------||------------------|-----------------|---------------|
|--------------||o-7-------7-------|-----------------|-7-------7-----|
|--------------||o-----------------|-5-------5-------|---------------|
|--------------||------------------|-----------------|---------------|


  H.      Q.   +E  E E   H.      H.
|----------------------|-----------------|
|----------------------|-----------------|
|-5-------5----(5)-5-6-|-7-------7-------|
|----------------------|-----------------|


                             To Coda
  H.      Q.   +E  E E   H.      H.
|----------------------|----------------|
|-7-------7----(7)-----|----------------|
|------------------5-6-|-7-------7------|
|----------------------|----------------|


                                        3rd Verse
  1.                 2.
  H.      H.          H.      H.         H.      H.        H.      H.
|------------------||-----------------||-----------------|---------------|
|-7---------------o||-7---------------||-7-------7-------|---------------|
|---------7-------o||---------7-------||-----------------|-5-------5-----|
|------------------||-----------------||-----------------|---------------|


  H.      H.        H.      H.        H.      H.
|-----------------|-----------------|---------------|
|-7-------7-------|-----------------|---------------|
|-----------------|-5-------5-------|-7-------7-----|
|-----------------|-----------------|---------------|


                                                  D.S. al Coda
  H.      H.        H.      H.        E E E E E E E E E E E E
|-----------------|-----------------|---------------------------||
|-4-------4-------|-----------------|---------------------------||
|-----------------|-5-------5-------|-7-7-7-7-7-7-7-7-7-7-7-7---||
|-----------------|-----------------|---------------------------||


                     Outro
  &
  H.      H.          H.      H.        H.      Q.   +E  E E  3x
|-----------------||------------------|-----------------------||
|-7---------------||o-7-------7-------|------------------5-6-o||
|---------7-------||o-----------------|-5-------5----(5)-----o||
|-----------------||------------------|-----------------------||


Duration Legend
---------------
W - whole; H - half; Q - quarter; E - 8th; S - 16th; T - 32nd; X - 64th; a - acciaccatura
+ - note tied to previous; . - note dotted; .. - note double dotted
Uncapitalized letters represent notes that are staccato (1/2 duration)
Irregular groupings are notated above the duration line
Duration letters will always appear directly above the note/fret number it represents the
duration for.  Duration letters with no fret number below them represent rests.  Multi-
bar rests are notated in the form Wxn, where n is the number of bars to rest for.  Low
melody durations appear below the staff

Tablature Legend
----------------
 h   - hammer-on
 p   - pull-off
 b   - bend
 pb  - pre-bend
 r   - bend release (if no number after the r, then release immediately)
 /\  - slide into or out of (from/to "nowhere")
 s   - legato slide
 S   - shift slide
  - natural harmonic
n  - artificial harmonic
n(n) - tapped harmonic
 ~   - vibrato
 tr  - trill
 T   - tap
 TP  - trem. picking
 PM  - palm muting
\n/  - tremolo bar dip; n = amount to dip
 \n  - tremolo bar down
 n/  - tremolo bar up
/n\  - tremolo bar inverted dip
 =   - hold bend; also acts as connecting device for hammers/pulls
 <>  - volume swell (louder/softer)
 x   - on rhythm slash represents muted slash
 o   - on rhythm slash represents single note slash

Misc Legend
-----------
 |  - bar
||  - double bar
||o - repeat start
o|| - repeat end
*|  - double bar (ending)
 :  - bar (freetime)
 $  - Segno
 &  - Coda
Tempo markers -  = BPM(8/16=s8/s16), where s8 = swing 8ths, s16 = swing 16ths
less
plus
Add to Songbook Print Version How to play lesson Submit videolesson
Click the best TAGS for this song:
None of them
Contributor: jpokElg_ Correct

If you can not find the chords or tabs you want, look at our partner E-chords. If you are a premium member, you have total access to our video lessons.

If you find a wrong Bad To Me from Otis Redding, click the correct button above.

login/signup
my songbooks
my recent views
my submits