Panic! At The Disco

Nails for breakfast tacks for snacks tab

Panic! At The Disco

Album:A Fever You Can't Sweat Out

Year:2005

chords
tabs
bass ukulele keyboards
drums
flute
harmonica
guitar pro video
Ultimate-Tabs

Nails for breakfast tacks for snacks

Drop D Tuning 
Intro  
(Delay) 
|--------13\-12/-13---------13-12---------13\-12/-13---------13-17----| 
|----/15----------------/15-----------/15----------------/15----------| 
|-14-----------------14------------14-----------------14--------------| 
|---------------------------------------------------------------------| 
|---------------------------------------------------------------------| 
|---------------------------------------------------------------------| 
 
 
Verse 
(Live he uses delay and hits only the root note.) 
|---------------------------------------------------------------------| 
|---------------------------------------------------------------------| 
|---------2-2-2-2-------------------------2-2-2-2-----------------7---| 
|-0-0-0-0-2-2-2-2-2-2-2-2-3-3-3-3-0-0-0-0-2-2-2-2-2-2-2-2-3-3-3-3-5---| 
|-0-0-0-0-0-0-0-0-2-2-2-2-3-3-3-3-0-0-0-0-0-0-0-0-2-2-2-2-3-3-3-3-5---| 
|-0-0-0-0---------2-2-2-2-3-3-3-3-0-0-0-0---------2-2-2-2-3-3-3-3-5---| 
 
 
PreChorus(Delay) 
(The hospice is?) 
|-3---------------------5---5-------------3h5p3---3h5p3---3h5p3-------------------1-| 
|-3-5p3---5p3---5p3-----6---6---5---------3-----3-3-------3-----5/6-5-6-5-6-5-6---4-| 
|-3-3---3-3---3-3-------5---5-----5-------3-------3-----3-3---------------------5-3-| 
|-5-5-----5-----5---5/7---5---3-----3-3/5-5-------5-------5-----------------------1-| 
|-x-------------------------------------------------------------------------------1-| 
|-5-------------------------------------------------------------------------------1-| 
 
 
Chorus 
|-----------------------------------------------------------------------| 
|-----------------------------------------------------------------------| 
|-----------------------------------------------------------------------| 
|-0-0--0h3-3-3--3/-8-8-8-8\-5-5--5\--0-0--0h3-3-3--3/-8--8-8-8\-5-5--5\-| 
|-0-0--0h3-3-3--3/-8-8-8-8\-5-5--5\--0-0--0h3-3-3--3/-8--8-8-8\-5-5--5\-| 
|-0-0--0h3-3-3--3/-8-8-8-8\-5-5--5\--0-0--0h3-3-3--3/-8--8-8-8\-5-5--5\-| 
 
 
(Delay) 
|--------13\-12/-13---------13-12---------13\-12/-13---------13-17----| 
|----/15----------------/15-----------/15----------------/15----------| 
|-14-----------------14------------14-----------------14--------------| 
|---------------------------------------------------------------------| 
|---------------------------------------------------------------------| 
|---------------------------------------------------------------------| 
 
 
Verse 
|---------------------------------------------------------------------| 
|---------------------------------------------------------------------| 
|---------2-2-2-2-------------------------2-2-2-2-----------------7---| 
|-0-0-0-0-2-2-2-2-2-2-2-2-3-3-3-3-0-0-0-0-2-2-2-2-2-2-2-2-3-3-3-3-5---| 
|-0-0-0-0-0-0-0-0-2-2-2-2-3-3-3-3-0-0-0-0-0-0-0-0-2-2-2-2-3-3-3-3-5---| 
|-0-0-0-0---------2-2-2-2-3-3-3-3-0-0-0-0---------2-2-2-2-3-3-3-3-5---| 
 
 
Chorus 
|-----------------------------------------------------------------------| 
|-----------------------------------------------------------------------| 
|-----------------------------------------------------------------------| 
|-0-0--0h3-3-3--3/-8-8-8-8\-5-5--5\--0-0--0h3-3-3--3/-8--8-8-8\-5-5--5\-| 
|-0-0--0h3-3-3--3/-8-8-8-8\-5-5--5\--0-0--0h3-3-3--3/-8--8-8-8\-5-5--5\-| 
|-0-0--0h3-3-3--3/-8-8-8-8\-5-5--5\--0-0--0h3-3-3--3/-8--8-8-8\-5-5--5\-| 
 
|---------------------------------------------------------------------| 
|---------------------------------------------------------------------| 
|---------------------------------------------------------------------| 
|-0-0--0h3-3-3--3/-8-8-8-8\-1-1-1-1-0-0--0h3-3-3--3/-8-8-8-8\-5-5--5\-| 
|-0-0--0h3-3-3--3/-8-8-8-8\-1-1-1-1-0-0--0h3-3-3--3/-8-8-8-8\-5-5--5\-| 
|-0-0--0h3-3-3--3/-8-8-8-8\-1-1-1-1-0-0--0h3-3-3--3/-8-8-8-8\-5-5--5\-| 
 
 
Interlude 
(Gtr 1) (Delay) 
|-------12-10-12-------12-10-| 
|----11-------------11-------| 
|-/12-----------/12----------|8x  
|----------------------------| 
|----------------------------| 
|----------------------------| 
|(Gtr 2)(Skip first 2 times)                                
|----------------------------|-------------------------------------| 
|----------------------------|-------------------------------------| 
|(7)-------------------------|(2)---------------(5)----------------| 
|-5-5-5-5-5-5-5-5-5----------|-0-0-0-0-0-0-0-0-0-3-3-3-3-3-3-3-3-3-| 
|-5-5-5-5-5-5-5-5-5----------|-0-0-0-0-0-0-0-0-0-3-3-3-3-3-3-3-3-3-| 
|-5-5-5-5-5-5-5-5-5----------|-0-0-0-0-0-0-0-0-0-3-3-3-3-3-3-3-3-3-| 
 
 
Chorus 
|-----------------------------------------------------------------------| 
|-----------------------------------------------------------------------| 
|-----------------------------------------------------------------------| 
|-0-0--0h3-3-3--3/-8-8-8-8\-5-5--5\--0-0--0h3-3-3--3/-8--8-8-8\-5-5--5\-| 
|-0-0--0h3-3-3--3/-8-8-8-8\-5-5--5\--0-0--0h3-3-3--3/-8--8-8-8\-5-5--5\-| 
|-0-0--0h3-3-3--3/-8-8-8-8\-5-5--5\--0-0--0h3-3-3--3/-8--8-8-8\-5-5--5\-| 
 
|---------------------------------------------------------------------| 
|---------------------------------------------------------------------| 
|---------------------------------------------------------------------| 
|-0-0--0h3-3-3--3/-8-8-8-8\-1-1-1-1-0-0--0h3-3-3--3/-8-8-8-8\-5-5--5\-| 
|-0-0--0h3-3-3--3/-8-8-8-8\-1-1-1-1-0-0--0h3-3-3--3/-8-8-8-8\-5-5--5\-| 
|-0-0--0h3-3-3--3/-8-8-8-8\-1-1-1-1-0-0--0h3-3-3--3/-8-8-8-8\-5-5--5\-| 
 
Outro(Delay) 
|-3---------------------5---5-------------3h5p3---3h5p3---3h5p3-------------------| 
|-3-5p3---5p3---5p3-----6---6---5---------3-----3-3-------3-----5/6-5-6-5-6-5-6---| 
|-3-3---3-3---3-3-------5---5-----5-------3-------3-----3-3---------------------5-| 
|-5-5-----5-----5---5/7---5---3-----3-3/5-5-------5-------5-----------------------| 
|-x-------------------------------------------------------------------------------| 
|-5-------------------------------------------------------------------------------| 
 
 
 
 
 
less
plus
Add to Songbook Print Version How to play lesson Submit videolesson
Click the best TAGS for this song:
None of them
Contributor: H.Aaindi Correct

If you can not find the chords or tabs you want, look at our partner E-chords. If you are a premium member, you have total access to our video lessons.

If you find a wrong Bad To Me from Panic! At The Disco, click the correct button above.

login/signup
my songbooks
my recent views
my submits