tools Ultimate Tabs

Start AutoScroll Font Size Down Font Size Up

Find us on Facebook

chords
tabs
bass
ukulele keyboards
drums
flute
harmonica
guitar pro
video
Ultimate-Tabs

Gypsy King

 

Intro 1.&Verse                   Intro 2.

---------------------------------| -------------------------------------------------|
-----------0------------3---0----| -----------0--------------3----3----3------0-----|
-------0-----------0------0------| -------0-----------0-------0----0----------------|
-----2-----------0---------------| -----2-----------0-------------------------------|
--0------0---023-----3-----------| --0------0---023-----3---------------------------|
---------------------------------| -------------------------------------------------|

 Chorus

----------------------------------------------------------------|
------------------------------------------------0---------------|
------0-----------------0------------------0--------0-----------|
----0-----------------0------------------0--------0-------------|
--3-----3-----------5-----5------------7-----7------------------|
----------------------------------------------------------------|

 
less
plus
Add to Songbook Print Version How to play lesson Submit videolesson
Click the best TAGS for this song:
None of them
Contributor: 232eluck Correct

If you can not find the chords or tabs you want, look at our partner E-chords. If you are a premium member, you have total access to our video lessons.

If you find a wrong Bad To Me from Patrick Wolf, click the correct button above.

login/signup
my songbooks
my recent views
my submits