Paul Anka

Put your head on my shoulders bass

Paul Anka

tools Ultimate Tabs

Start AutoScroll Font Size Down Font Size Up

Find us on Facebook

chords
tabs
bass
ukulele
keyboards
drums
flute
harmonica
guitar pro
video
Ultimate-Tabs

Put your head on my shoulders

Tuning : E A D G 	Time Signature: 4/4 
 
 |               |               |               |                 
|--------------------------4-------------------------------4-----| 
|5-------------------------------2-------------------5-----------| 
|----------------------------------------------------------------| 
|----------------------------------------------------------------| 
 
 |               |               |               |                 
|2-------------------------2-------------------------------2-----| 
|--------------------------------0---------------4---------------| 
|----------------------------------------------------------------| 
|----------------------------------------------------------------| 
 
 |               |               |               |                 
|--------------------------4-----5---------------5---4-----2-----| 
|5---------------------------------------------------------------| 
|----------------------------------------------------------------| 
|----------------------------------------------------------------| 
 
 |               |               |               |                 
|0---------------------------------------------------------------| 
|----------------------------------------------------------------| 
|----------------------------------------------------------------| 
|----------------------------------------------------------------| 
 
 |               |               |               |                 
|----------------------------------------------------------4-----| 
|2-------------------------------2-------------------------------| 
|----------------------------------------------------------------| 
|----------------------------------------------------------------| 
 
 |               |               |               |                 
|2---------------------------------------------------------2-----| 
|--------------------------------0-------------------------------| 
|----------------------------------------------------------------| 
|----------------------------------------------------------------| 
 
 |               |               |               |                 
|----------------------------------------------------------4-----| 
|5-------------------------------2-------------------------------| 
|----------------------------------------------------------------| 
|----------------------------------------------------------------| 
 
 |               |               |               |                 
|2---------------------------------------------------------2-----| 
|--------------------------------0-------------------------------| 
|----------------------------------------------------------------| 
|----------------------------------------------------------------| 
 
 |               |               |               |                 
|----------------------------------------------------------4-----| 
|5-------------------------------2-------------------------------| 
|----------------------------------------------------------------| 
|----------------------------------------------------------------| 
 
 |               |               |               |                 
|2---------------------------------------------------------2-----| 
|--------------------------------0-------------------------------| 
|----------------------------------------------------------------| 
|----------------------------------------------------------------| 
 
 |               |               |               |                 
|----------------------------------------------------------4-----| 
|5-------------------------5-----2---------------2---5-----------| 
|----------------------------------------------------------------| 
|----------------------------------------------------------------| 
 
 |               |               |               |                 
|0---------------------------------------------------------------| 
|----------------------------------------------------------------| 
|----------------------------------------------------------------| 
|----------------------------------------------------------------| 
 
 |               |               |               |                 
|--------------------------------4-------------------------4-----| 
|2-------------------------5-------------------------------------| 
|----------------------------------------------------------------| 
|----------------------------------------------------------------| 
 
 |               |               |               |                 
|2-------------------------2-------------------------------2-----| 
|--------------------------------0-------------------------------| 
|----------------------------------------------------------------| 
|----------------------------------------------------------------| 
 
 |               |               |               |                 
|----------------------------------------------------------4-----| 
|5-------------------------------2-------------------------------| 
|----------------------------------------------------------------| 
|----------------------------------------------------------------| 
 
 |               |               |               |                 
|2-------------------------2-------------------------------2-----| 
|--------------------------------0-------------------------------| 
|----------------------------------------------------------------| 
|----------------------------------------------------------------| 
 
 |               |               |               |                 
|----------------------------------------------------------4-----| 
|5-------------------------------2-------------------------------| 
|----------------------------------------------------------------| 
|----------------------------------------------------------------| 
 
 |               |               |               |                 
|2-------------------------2-------------------------------2-----| 
|--------------------------------0-------------------------------| 
|----------------------------------------------------------------| 
|----------------------------------------------------------------| 
 
 |               |               |               |                 
|--------------------------4-----5---------------5---4-----2-----| 
|5---------------------------------------------------------------| 
|----------------------------------------------------------------| 
|----------------------------------------------------------------| 
 
 |               |               |               |                 
|--------------------------------7---------------9---7-----------| 
|--------------------------9-------------------------------9-----| 
|10--------------------------------------------------------------| 
|----------------------------------------------------------------| 
 
 |               |               |               |                 
|----------------------------------------------------------------| 
|0---0-----0-----0---------------0---0-----0-----0---------------| 
|----------------------------------------------------------------| 
|----------------------------------------------------------------| 
 
 |               |               |               |                 
|0---0-----0-----0---------------0---0-----0-----0---------------| 
|----------------------------------------------------------------| 
|----------------------------------------------------------------| 
|----------------------------------------------------------------| 
 
 |               |               |               |                 
|----------------------------------------------------------------| 
|0---0-----0-----0---------------0---0-----0-----0---------------| 
|----------------------------------------------------------------| 
|----------------------------------------------------------------| 
 
 |               |               |               |                 
|0---0-----0-----0---------------0---0-----0-----0---0-----0-----| 
|----------------------------------------------------------------| 
|----------------------------------------------------------------| 
|----------------------------------------------------------------| 
 
 |               |               |               |                 
|----------------------------------------------------------------| 
|4---4-----4-----4---------------4---4-----4-----4---------------| 
|----------------------------------------------------------------| 
|----------------------------------------------------------------| 
 
 |               |               |               |                 
|4---4-----4-----4---------------4---4-----4-----4---------------| 
|----------------------------------------------------------------| 
|----------------------------------------------------------------| 
|----------------------------------------------------------------| 
 
 |               |               |               |                 
|2---2-----2-----2---------------2---2-----2-----2---------------| 
|----------------------------------------------------------------| 
|----------------------------------------------------------------| 
|----------------------------------------------------------------| 
 
 |               |               |               |                 
|------------------------------------------------2---2-----2-----| 
|0---0-----0-----0---0-----0-----4---4-----4---------------------| 
|----------------------------------------------------------------| 
|----------------------------------------------------------------| 
 
 |               |               |               |                 
|7---------------------------------------------------------------| 
|----------------------------------------------------------------| 
|----------------------------------------------------------------| 
|----------------------------------------------------------------| 
 
 |               |               |               |                 
|--------------------------------4-------------------------4-----| 
|2-------------------------5-------------------------------------| 
|----------------------------------------------------------------| 
|----------------------------------------------------------------| 
 
 |               |               |               |                 
|--------------------------4-----7---------------4---7-----------| 
|5---------------------------------------------------------5-----| 
|----------------------------------------------------------------| 
|----------------------------------------------------------------| 
 
 |               |               |               |                 
|----------------------------------------------------------------| 
|1---------------------------------------------------------------| 
|----------------------------------------------------------------| 
|----------------------------------------------------------------| 
 
 |               |               |               |                 
|----------------------------------------------------------5-----| 
|3-------------------------------3-------------------------------| 
|----------------------------------------------------------------| 
|----------------------------------------------------------------| 
 
 |               |               |               |                 
|3---------------------------------------------------------3-----| 
|--------------------------------1-------------------------------| 
|----------------------------------------------------------------| 
|----------------------------------------------------------------| 
 
 |               |               |               |                 
|----------------------------------------------------------5-----| 
|6-------------------------------3-------------------------------| 
|----------------------------------------------------------------| 
|----------------------------------------------------------------| 
 
 |               |               |               |                 
|3-------------------------3---------------------0---------3-----| 
|--------------------------------1-------------------------------| 
|----------------------------------------------------------------| 
|----------------------------------------------------------------| 
 
 |               |               |               |                 
|1-------------------------1-------------------------0-----1-----| 
|--------------------------------3---------------3---------------| 
|----------------------------------------------------------------| 
|----------------------------------------------------------------| 
 
 |               |               |               |                 
|3---------------------------------------------------------------| 
|----------------------------------------------------------------| 
|----------------------------------------------------------------| 
|----------------------------------------------------------------| 
 
 |               |               |               |                 
|----------------------------------------------------------------| 
|----------------------------------------------------------------| 
|----------------------------------------------------------------| 
|----------------------------------------------------------------| 
 
 |               |               |               |                 
|----------------------------------------------------------5-----| 
|--------------------------------3---------------6---------------| 
|--------------------------3-------------------------------------| 
|----------------------------------------------------------------| 
 
 |               |               |               |                 
|3---------------------------------------------------------------| 
|--------------------------------1-------------------------------| 
|----------------------------------------------------------------| 
|----------------------------------------------------------------| 
 
  
 
 
 
less
plus
Add to Songbook Print Version How to play lesson Submit videolesson
Click the best TAGS for this song:
None of them
Contributor: muzogall Correct

If you can not find the chords or tabs you want, look at our partner E-chords. If you are a premium member, you have total access to our video lessons.

If you find a wrong Bad To Me from Paul Anka, click the correct button above.

login/signup
my songbooks
my recent views
my submits