S Paul McCartney

Blue Jean Bop bass

Paul McCartney

tools Ultimate Tabs

Start AutoScroll Font Size Down Font Size Up

Find us on Facebook

chords tabs
bass
ukulele keyboards
drums
flute
harmonica
guitar pro
video
Ultimate-Tabs

Blue Jean Bop

    -------------------------------------------------------------

    PAUL McCARTNEY - BLUE JEAN BOP (Vincent/Levy). From RUN DEVIL
                     RUN album. Released on October 5th, 1999. 
   
    -------------------------------------------------------------

    Bass tab by:PJVillanueva




 

    Bluejean baby, with your big blue eyes 
    Don`t want you looking at other guys 
    Got to make you give me, one more chance 
    I can`t keep still, so baby let`s dance.  

    Well Bluejean bop is the bop for me 
    It`s the bop that`s done in a dungaree 
    You dip your hip, you free your knee. Well 
    Squeel on your heel baby, one two three.  
    Well Bluejean bop, bluejean bop, Oh baby 
    Bluejean bop, bluejean bop, Oh baby 
    Bluejean bop, baby won`t you bop with me. 
    (Gasp)
                 SOLO 1
    
                                     
    Well Bluejean baby when I bop with you.
    Well my heart starts hoppin' like a kangaroo. 
    My feet do things they never done before 
    Well bluejean baby, give me more more more 
    Bluejean bop, bluejean bop, Oh baby
    Bluejean bop, bluejean bop, Oh baby
    Bluejean bop, baby won`t you bop with me,  
    Yeah! Rock again

                 SOLO 2

    Well bluejean bop, bluejean bop, Oh baby
    Bluejean bop, bluejean bop, Oh baby
    Bluejean bop, baby won`t you bop with me. Yeah
  

    Bluejean bop, bluejean bop, Oh baby
    Bluejean bop, bluejean bop, Oh baby
    Bluejean bop, baby won`t you bop with Gene. 


                               



   G|------- ------- ------- -------|------- -------|
   D|-------------------------------|---------------|
   A|0------------------------------|5--------------|
   E|-------------------------------|---------------|
     Bluejean    baby,          with big        blue 
                                  your             eyes

   G|------- ------- ------- -------|------- ------- ------- -------|
   D|-------------------------------|-------------------------------|
   A|0------------------------------|0------------------------------|
   E|-------------------------------|-------------------------------|
                                    Don't       want  looking    at
                                                   you

   G|------- -------|------- ------- ------- -------|
   D|---------------|-------------------------------|
   A|5--------------|0------------------------------|
   E|---------------|-------------------------------|
     other        guys


   G|------- ------- ------- -------|------- -------|
   D|-------------------------------|---------------|
   A|0------------------------------|5--------------|
   E|-------------------------------|---------------|
     Got to make you give me,        one         more 


   G|------- ------- ------- -------|
   D|-------------------------------|
   A|0------------------------------|
   E|-------------------------------|
     chance                       I

     12/8

   G|------- ------- ------- -------|------- ------- ------- -------|
   D|-------------------------------|-------------------------------|
   A|-------------------------------|-------------------------------|
   E|-------------------------------|-------------------------------|
     can't   keep    still,  so      baby    let`s   dance.  Well


     00:23

   G|------- ------- ------- -------|------- ------- ------- -------|
   D|--------4-------7-------4--H-7-|--------4-------7-------4------|
   A|5------------------------------|5------------------------------|
   E|-------------------------------|-------------------------------|
     Blue    jean    bop     is      bop     for  me         It`s the
                                  the

   G|------- ------- ------- -------|------- ------- ------- -------|
   D|7-------4----------------------|-------------------------------|
   A|----------------7-------4--H-7-|--------4-------7-------4------|
   E|-------------------------------|5------------------------------|
     bop     that`s  done    in   a  dungaree.                    You
 

   G|------- ------- ------- -------|------- ------- ------- -------|
   D|--------4-------7-------4------|--------4-------7-------4------|
   A|5------------------------------|5------------------------------|
   E|-------------------------------|-------------------------------|
     dip  your    hip,           you free your    knee.   Well    squeal


   G|------- ------- ------- -------|------- ------- ------- -------|
   D|7------------------------------|-------------------------------|
   A|-------------------------------|-------------------------------|
   E|-------------------------------|-------------------------------|
          on your heel               One     two     three
                     baby                                 Well

   G|------- ------- ------- -------|------- ------- ------- -------|
   D|--------4-------7-------4--H-7-|--------4-------7-------4--H-7-|
   A|5------------------------------|5------------------------------|
   E|-------------------------------|-------------------------------|
     Blue    jean    bop             blue    jean    bop. Oh  baby


   G|------- ------- ------- -------|------- ------- ------- -------|
   D|------------------------4------|7-------4----------------------|
   A|--------4-------7--------------|----------------7-------4------|
   E|5------------------------------|-------------------------------|
     Bluejean        bop             blue    jean    bop. Oh  baby


   G|------- ------- ------- -------|------- ------- ------- -------|
   D|--------6-------9-------6------|--------4-------5-------6------|
   A|7------------------------------|5------------------------------|
   E|-------------------------------|-------------------------------|
     Blue    jean    bop          baby       won`t   bop     with me
                                                  you


   G|------- ------- ------- -------|------- ------- ------- -------|
   D|7-------4----------------------|------------------------4------|
   A|----------------7-------4--H-7-|0-------4---/---7--------------|
   E|-------------------------------|-------------------------------|


     SOLO 1
     00:43

   G|------- ------- ------- -------|------- ------- ------- -------|
   D|-------------------------------|7------------------------------|
   A|0-------4-/-----7-------9------|--------9-------7--------------|
   E|-------------------------------|------------------------9-/----|



   G|------- ------- ------- -------|------- ------- ------- -------|
   D|------------------------4------|7-------4----------------------|
   A|0-------4-------7--------------|----------------7-------4------|
   E|-------------------------------|-------------------------------|



   G|------- ------- ------- -------|------- ------- ------- -------|
   D|--------4-------7-------4------|-------------------------------|
   A|5------------------------------|5-\----------------------------|
   E|-------------------------------|--------2-------3-------4------|



   G|------- ------- ------- -------|------- ------- ------- -------|
   D|------------------------4------|7-------4----------------------|
   A|--------4-------7--------------|----------------7-------4----5-|
   E|5------------------------------|-------------------------------|



   G|------- ------- ------- -------|------- ------- ------- -------|
   D|--------6-------9-------6------|--------4-------5-------6------|
   A|7------------------------------|5------------------------------|
   E|-------------------------------|-------------------------------|



   G|------- ------- ------- -------|------- ------- ------- -------|
   D|7-------4----------------------|------------------------4------|
   A|----------------7-------4--H-7-|--------4-------7--------------|
   E|-------------------------------|5------------------------------|
                                                          Well    blue

     00:58

   G|------- ------- ------- -------|------- ------- ------- -------|
   D|7-------4----------------------|------------------------4------|
   A|----------------7-------4--H-7-|--------4-------7--------------|
   E|-------------------------------|5------------------------------|
             jean    baby    when I  bop     with you.    Well    my


   G|------- ------- ------- -------|------- ------- ------- -------|
   D|7-------4----------------------|-------------------------------|
   A|----------------7-------4--H-7-|--------4-------7-------4------|
   E|-------------------------------|5------------------------------|
     heart   starts  hopping like a  kangaroo.                    My


   G|------- ------- ------- -------|------- ------- ------- -------|
   D|--------4-------7-------4--H-7-|--------4-------5-------6------|
   A|5------------------------------|5------------------------------|
   E|-------------------------------|-------------------------------|
     feet    do      things  never   done    before.      Well   Blue
                          they

   G|------- ------- ------- -------|------- ------- ------- -------|
   D|7------------------------------|-------------------------------|
   A|-------------------------------|-------------------------------|
   E|-------------------------------|-------------------------------|
          jean       baby    give me more    more    more.


     01:08

   G|------- ------- ------- -------|------- ------- ------- -------|
   D|--------4-------7-------4--H-7-|--------4-------7-------4------|
   A|5------------------------------|5------------------------------|
   E|-------------------------------|-------------------------------|
     Blue    jean    bop             blue    jean    bop. Oh  baby


   G|------- ------- ------- -------|------- ------- ------- -------|
   D|7-------4----------------------|-------------------------------|
   A|----------------7-------4--H-7-|--------4-------5-------6------|
   E|-------------------------------|5------------------------------|
     Bluejean        bop          blue    jean       bop. Oh  baby


   G|------- ------- ------- -------|------- ------- ------- -------|
   D|--------6-------9-------6------|--------4-------5-------6------|
   A|7------------------------------|5------------------------------|
   E|-------------------------------|-------------------------------|
     Blue    jean    bop          baby       won`t   bop     with me
                                                  you

   G|------- ------- ------- -------|------- ------- ------- -------|
   D|7-------5-------4--------------|-------------------------------|
   A|------------------------8------|7-------5-------4--------------|
   E|-------------------------------|------------------------7------|
                  Yeah,                           Rock    again!

     SOLO 2
     01:19
 
   G|------- ------- ------- -------|------- ------- ------- -------|
   D|------------------------4------|7-------4----------------------|
   A|0-------4-/-----7--------------|----------------7-------4--H-7-|
   E|-------------------------------|-------------------------------|



   G|------- ------- ------- -------|------- ------- ------- -------|
   D|------------------------4------|7-------4----------------------|
   A|0-------4-/-----7--------------|----------------7-------6------|
   E|-------------------------------|-------------------------------|



   G|------- ------- ------- -------|------- ------- ------- -------|
   D|-------------------------------|-------------------------------|
   A|5-----------------------2------|5------------------------------|
   E|--------2-------5--------------|--------2-------5-------2------|



   G|------- ------- ------- -------|------- ------- ------- -------|
   D|------------------------4------|7-------4----------------------|
   A|--------4-------7--------------|----------------7-------4------|
   E|5------------------------------|-------------------------------|



   G|------- ------- ------- -------|------- ------- ------- -------|
   D|--------4-------7-------4------|--------4-------5-------6------|
   A|5------------------------------|5------------------------------|
   E|-------------------------------|-------------------------------|



   G|------- ------- ------- -------|------- ------- ------- -------|
   D|7-------4----------------------|-------------------------------|
   A|----------------7-------4--H-7-|0-------2-------3-------4------|
   E|-------------------------------|-------------------------------|
                                                          Well    Blue

     01:34

   G|------- ------- ------- -------|------- ------- ------- -------|
   D|--------4-------7-------4------|--------4-------7-------4------|
   A|5------------------------------|5------------------------------|
   E|-------------------------------|-------------------------------|
     Blue    jean    bop             blue    jean    bop. Oh  baby


   G|------- ------- ------- -------|------- ------- ------- -------|
   D|7-------4----------------------|-------------------------------|
   A|----------------7-------4------|0-------4-------5-------6------|
   E|-------------------------------|-------------------------------|
     Bluejean        bop          blue    jean       bop. Oh  baby


   G|------- ------- ------- -------|------- ------- ------- -------|
   D|--------6-------9-------6------|--------4-------7-------4------|
   A|7------------------------------|5------------------------------|
   E|-------------------------------|-------------------------------|
     Blue    jean    bop          baby       won`t   bop     with me
                                                  you

   G|------- ------- ------- -------|------- ------- ------- -------|
   D|7-------4----------------------|-------------------------------|
   A|----------------7-------4------|0-------4-/-----7-------4------|
   E|-------------------------------|-------------------------------|


     01:44

   G|------- ------- ------- -------|------- ------- ------- -------|
   D|--------4-------7-------4------|--------4-------5-------6------|
   A|5------------------------------|5------------------------------|
   E|-------------------------------|-------------------------------|
     Blue    jean    bop             blue    jean    bop. Oh  baby


   G|------- ------- ------- -------|------- ------- ------- -------|
   D|7-------4----------------------|-------------------------------|
   A|----------------7-------4--H-7-|0-------4-------5-------6------|
   E|-------------------------------|-------------------------------|
     Bluejean        bop          blue    jean       bop. Oh  baby


   G|------- ------- ------- -------|------- ------- ------- -------|
   D|--------6-------9-------6-\----|--------4-------7-------4------|
   A|7------------------------------|5------------------------------|
   E|-------------------------------|-------------------------------|
     Blue    jean    bop          baby       won`t   bop     with me
                                                  you

                                                 (.
   G|------- ------- ------- -------|------- ------- ------- -------|
   D|------------------------4------|-------------7-----------------|
   A|0-------4-------7--------------|0------------------------------|
   E|-------------------------------|-------------------------------|








        B  Bend
        R  Release
        /  slide up
        \  slide down
        H  hammer-on
        P  pull-off
        ~  vibrato
        +  harmonic
        x  Mute note
        . - play note like a dot in standard notation
        ^ - ties two notes together
        (.  Pause



less
plus
Add to Songbook Print Version How to play lesson Submit videolesson
Click the best TAGS for this song:
None of them
Contributor: plie6225 Correct

If you can not find the chords or tabs you want, look at our partner E-chords. If you are a premium member, you have total access to our video lessons.

If you find a wrong Bad To Me from Paul McCartney, click the correct button above.

login/signup
my songbooks
my recent views
my submits