S Paul McCartney

Lunchbox Odd Sox bass

Paul McCartney

tools Ultimate Tabs

Start AutoScroll Font Size Down Font Size Up

Find us on Facebook

chords
tabs
bass
ukulele
keyboards
drums
flute
harmonica
guitar pro
video
Ultimate-Tabs

Lunchbox Odd Sox

          ------------------------------------------------------

                PAUL MCCARTNEY & WINGS - LUNCHBOX/ODD SOX
                             Paul McCartney
               From VENUS AND MARS album. Released on 1975.

          ------------------------------------------------------




     INTRO


  G|---------------------------------|---------------------------------|
  D|---------------------------------|---------------------------------|
  A|---------------------------------|---------------------------------|
  E|---------------------------------|---------------------------------|





  G|---------------------------------|---------------------------------|
  D|---------------------------------|---------------------------------|
  A|---------------------------------|---------------------------------|
  E|---------------------------------|---------------------------------|





     VERSE
     00:11

  G|---------------------------------|---------------------------------|
  D|-5-----5-5-----5-5-----5-5-------|-3-----3-3-----3-3-----3-3-------|
  A|---------------------------------|---------------------------------|
  E|---------------------------------|---------------------------------|





  G|---------------------------------|---------------------------------|
  D|---------------------------------|-5---------------5---------------|
  A|-5-----5-5-----5-5-----5-5-----5-|-------5-------5---------3---4---|
  E|---------------------------------|---------3-----------6-----------|





     CHORUS
     00:21

  G|---------------------------------|---------------------------------|
  D|---------------------------------|-5---------------5---------------|
  A|-5-----5-5-----5-5-----5-5-----5-|-------5-------5---------3---4---|
  E|---------------------------------|---------3-----------6-----------|





  G|---------------------------------|---------------------------------|
  D|---------------------------------|-5---------------5---------------|
  A|-5-----5-5-----5-5-----5-5-----5-|-------5-------5---------3---4---|
  E|---------------------------------|---------3-----------6-----------|





  G|---------------------------------|---------------------------------|
  D|---------------------------------|---------------------------------|
  A|-5-----5-5-----5-5-----5-5-----x-|-6-----6-6-----6-6-----6-6-------|
  E|---------------------------------|---------------------------------|





  G|-8-------------------------------|
  D|---------8-------5---------------|
  A|-------------------------6-------|
  E|---------------------------------|





     VERSE
     00:40

  G|---------------------------------|---------------------------------|
  D|-5-------7-------8-------5-------|---------5---7-------------------|
  A|---------------------------------|-8-------------------------------|
  E|---------------------------------|---------------------------------|





  G|---------------------------------|---------------------------------|
  D|-----------------4---------------|-5-------7---8-------7---5-------|
  A|-5-------7---------------5-------|---------------------------------|
  E|---------------------------------|---------------------------------|





     CHORUS
     00:50

  G|---------------------------------|---------------------------------|
  D|---------------------------------|-5---------------5---------------|
  A|-5-----5-5-----5-5-----5-5-----5-|-------5-------5---------3---4---|
  E|---------------------------------|---------3-----------6-----------|





  G|---------------------------------|---------------------------------|
  D|---------------------------------|-5---------------5---------------|
  A|-5-----5-5-----5-5-----5-5-----5-|-------5-------5---------3---4---|
  E|---------------------------------|---------3-----------6-----------|





  G|---------------------------------|---------------------------------|
  D|---------------------------------|---------------------------------|
  A|-5-----5-5-----5-5-----5-5-----5-|-6-----6-6-----6-6-----6-6-------|
  E|---------------------------------|---------------------------------|





  G|-8-------------------------------|
  D|---------8-------5---------------|
  A|-------------------------6-------|
  E|---------------------------------|





     VERSE
     01:08

  G|---------------------------------|---------------------------------|
  D|-5-----5-5-----5-5-----0-5-----0-|-3-----3-3-----3-3-----3-3-------|
  A|---------------------------------|-------------------------------5-|
  E|---------------------------------|---------------------------------|





  G|---------------------------------|---------------------------------|
  D|---------------------------------|-5---------------5-----5-5-------|
  A|-5-----5-5-----5-5-----5-5-----5-|-------5-------5-----------------|
  E|---------------------------------|---------3-----------------------|




     01:18

  G|---------------------------------|---------------------------------|
  D|-5-------7-------8-------5-------|---------5---7-------------------|
  A|---------------------------------|-8-------------------------------|
  E|---------------------------------|---------------------------------|





  G|---------------------------------|-------------------------|
  D|-----------------4---------------|-5-----------------------|
  A|-5-------7---------------5-------|---------5---------------|
  E|---------------------------------|-----------------3-------|





     VERSE
     01:28

   G|-------------------------------|-------------------------------|
   D|-------------------------------|-------------------------------|
   A|-------------------------------|-------------------------------|
   E|-------------------------------|-------------------------------|





   G|-------------------------------|-------------------------------|
   D|-5------------------------3----|-5-----------------------------|
   A|---------------------5---------|-------------------------------|
   E|-------------------------------|-------------------------------|





   G|-------------------------------|-------------------------------|
   D|-------------------------------|-------------------------------|
   A|-5------------------------3----|-5-----------------------------|
   E|---------------------5---------|-------------------------------|





   G|-------------------------------|-------------------------------|
   D|-5------------------------3----|-5-----------------------------|
   A|---------------------5---------|-------------------------------|
   E|-------------------------------|-------------------------------|





   G|-------------------------------|-------------------------------|
   D|-------------------------------|-------------------------------|
   A|-5------------------------5----|-----------5---------7---------|
   E|---------------------3---------|-3-----------------------------|





   G|-------------------------------|-------------------------------|
   D|-------------------------------|-3-----------------------------|
   A|-8------------------------5----|------5------------------------|
   E|-------------------------------|-----------3---------4---------|





   G|-------------------------------|-------------------------------|
   D|-------------------------------|-------------------------------|
   A|-------------------------------|-3-/---------------------------|
   E|-5------------------------5----|-------------------------------|





   G|-------------------------------|
   D|-------------------------------|
   A|-------------------------------|
   E|-------------------------------|





      VERSE
      01:55

   G|-------------------------------|-------------------------------|
   D|-5------------------------3----|-5-----------------------------|
   A|---------------------5---------|-------------------------------|
   E|-------------------------------|-------------------------------|





   G|-------------------------------|-------------------------------|
   D|-------------------------------|-------------------------------|
   A|-5------------------------3----|-5-----------------------------|
   E|---------------------5---------|-------------------------------|





   G|-------------------------------|-------------------------------|
   D|-5------------------------3----|-5-----------------------------|
   A|---------------------5---------|-------------------------------|
   E|-------------------------------|-------------------------------|





   G|-------------------------------|-------------------------------|
   D|-------------------------------|-------------------------------|
   A|-5------------------------5----|-----------5---------7---------|
   E|---------------------3---------|-3-----------------------------|





   G|-------------------------------|-------------------------------|
   D|-------------------------------|-3-----------------------------|
   A|-8------------------------5----|------5------------------------|
   E|-------------------------------|-----------3---------4---------|





   G|-------------------------------|-------------------------------|
   D|-------------------------------|-------------------------------|
   A|-------------------------------|-3-/---------------------------|
   E|-5------------------------5----|-------------------------------|





   G|-------------------------------|
   D|-------------------------------|
   A|-------------------------------|
   E|-------------------------------|





      VERSE
      02:18 .....


      02:41 .....


      03:04 .....


      OUTRO
      03:30 .....
less
plus
Add to Songbook Print Version How to play lesson Submit videolesson
Click the best TAGS for this song:
None of them
Contributor: thuujust Correct

If you can not find the chords or tabs you want, look at our partner E-chords. If you are a premium member, you have total access to our video lessons.

If you find a wrong Bad To Me from Paul McCartney, click the correct button above.

login/signup
my songbooks
my recent views
my submits