tools Ultimate Tabs

Start AutoScroll Font Size Down Font Size Up

Find us on Facebook

chords tabs
bass
ukulele keyboards
drums
flute
harmonica
guitar pro video
Ultimate-Tabs

New

-------------------------------------------------------------------------------
                             NEW - Paul McCartney
-------------------------------------------------------------------------------
Tabbed by: Guytarist38


Tuning: Standart



INTRO:

G|---------|
D|---------|
A|---------|
E|--3------|



VERSE 1 & 2 :

G|--------------|--------------|--------------|--------------|
D|--------------|--------------|--------------|--------------|
A|--3--3--1--1--|--0--0--------|--------------|--------------|
E|--------------|--------4--4--|--3--3--3--3--|--3--3--3--3--|

G|--------------|--------------|--------------|--------------|
D|--------------|--------------|--------------|--------------|
A|--------------|--------5--5--|--3--3--------|--0--0--0--0--|
E|--3--3--4--4--|--5--5--------|--------3-----|--------------|


G|--------------|--------------|--------------|
D|--------------|--------------|--------------|
A|--------------|--------------|--------------|   
E|--3--3--3--3--|--1--1--1--1--|--3--3--3--3--| 

G|--------------|--------------|--------------|-----------------|
D|--------------|--------------|--------------|----------5-3----|
A|--3-----1-----|--0-----------|--------------|---------------6-|
E|--------------|--------4-----|--3-----3-----|--3-----3--------|

G|--------------|-------4-5-7--7--|--5--5--------|--------------|
D|--------------|-----7-----------|--------5-----|--7--7--7--7--|
A|--------------|-----------------|--------------|--------------|
E|--3--3--4--4--|--5--------------|--------------|--------------|


G|--------------|
D|--5--5--5--5--|
A|--------------|   
E|--------------| 



BRIDGE :

G|--------------|--------------|-----------------|-----------------|
D|--3-----3--2--|--0--0--0--0--|-----------------|-----------------|
A|--------------|--------------|--0-----0--0-3-0-|-----------------|
E|--------------|--------------|-----------------|--3--3--3--3-5-3-|

                                              
G|--------------|--------------|--------------|
D|--------------|--0--0--0--0--|--------------|
A|--------------|--------------|--0--0--0--0--|
E|--1-----1--0--|--------------|--------------|

         1.
        G|-----------------|
        D|--------------5--|
        A|--------3-5------|   
        E|--3--------------| 

         2.
        G|-----------------|----------------|
        D|-----------------|----------------|
        A|-----------------|-----3-5-3---5--|
        E|--3--------------|---3------------|



VERSE 3:

G|--------------|--------------|--------------|-----------------|
D|--------------|--------------|--------------|----------5-3--5-|
A|--3-----1-----|--0-----------|--------------|-----------------|
E|--------------|--------4-----|--3-----3-----|--3-----3--------|

G|--------------|-------4-5-7--7--|--5--5--------|--------------|
D|--------------|-----7-----------|--------5--5--|--------------|
A|--------------|-----------------|--------------|--------------|
E|--3--3--4--4--|--5--------------|--------------|--5--5--5--5--|

G|--------------|--------------|--------------|--------------|
D|--------------|--------------|--------------|--------------|
A|--------------|--------------|--------------|--------------|   
E|--3--3--3--3--|--1--1--1--1--|--3--3--3--3--|--5--5--5--5--| 

G|--------------|--------------|--------------|--------------|
D|--------------|--------------|--------------|--------------|
A|--------------|--------------|--------------|--------------|   
E|--3--3--3--3--|--1--1--1--1--|--3--3--3--3--|--5--5--5--5--| 

G|--------------|--------------|--------------|--------------|
D|--------------|--------------|--------------|--------------|
A|--------------|--------------|--------------|--3-----------|   
E|--3--3--3--3--|--1--1--1--1--|-----3-----3--|--------------| 



OUTRO :

G|--------------|--------------|--------------|--------------|
D|--------------|--------------|--------------|--------------|
A|--3--3--1--1--|--0--0--------|--------------|--------------|
E|--------------|--------4--4--|--3--3--3--3--|--3--3--3--3--|

G|--------------|--------------|--------------|--------------|
D|--------------|--------------|--------------|--------------|
A|--------------|--------5--5--|--3--3--------|--3-----------|
E|--3--3--4--4--|--5--5--------|--------3-----|--------------|




| /  slide up
| \  slide down
| h  hammer-on
| p  pull-off
| ~  vibrato
| +  harmonic
| x  Mute note
===============================================================================
less
plus
Add to Songbook Print Version How to play lesson Submit videolesson
Click the best TAGS for this song:
None of them
Contributor: Vikugodi Correct

If you can not find the chords or tabs you want, look at our partner E-chords. If you are a premium member, you have total access to our video lessons.

If you find a wrong Bad To Me from Paul McCartney, click the correct button above.

login/signup
my songbooks
my recent views
my submits