tools Ultimate Tabs

Start AutoScroll Font Size Down Font Size Up

Find us on Facebook

chords
tabs
bass
ukulele keyboards
drums
flute
harmonica
guitar pro
video
Ultimate-Tabs

Save Us

                             Save Us ? Paul McCartney
-----------------------------------------------------------------------------
Tabbed by: jwilder
Tuning: Regular

NOT perfect, my first tab.
Play along to the song for timing. 

Intro
G----------------------------------------------------------------------------|
D|---------------------------------------------------------------------------|
A|---------------------------------5-5-5-5-5-5-5-5-5-5-5-5-5-5-5-5-----------|
E|-5-5-5-5-5-5-5-5-5-5-5-5-5-5-5-5-------------------------------------------|

Verse
G|---------------------------------------------------------------------------|
D|---------------------------------------------------------------------------|
A: -------------------------------5-5-5-5-5-5-5-5-5-5-5-5-5-5----------------|
E|5-5-5-5-5-5-5-5-5-5-5-5-5-5-5-5--------------------------------------------|
  I can try to give you...
G|---------------------------------------------------------------------------|
D|---------------------------------------------------------------------------|
A|----------------------------------5-5-5-5-5-5-5-5-5-5-5-5-5-5-5-5----------|
E|5-5-5-5-5-5-5-5-5-5-5-5-5-5-5-5--------------------------------------------|
                                          ...With ease
G|------------------------------------------------------------------------------|
D|5-5-5-5-5-5-5-5-5-5-5-5-5-5-5-5---3-3-3-3-3-3-3-3--2-0------------------------|
A|-------------------------------------------------------3-2--?-----------------|
E|------------------------------------------------------------5-5-5-5-5-5-5-5-5-|
         Keep on sending your...    love                           Cause..
G|---------------------------------------------------------------------------|
D|---------------------------------------------------------------------------|
A|---------------------------------------------------------------------------|
E|3-3-3-3-1-1-1-1-1-1-1-1-1-1-0-0-0-0-0-5-5-5-5-3-3-3-3----5-----------------|
  Battle        You?ve got.....save us, -save-- us----- ...now (Intro notes x 2)

Verse 2 same as verse 1
Verse 2 "Save us now" leads straight to bridge

Bridge
G|---------------------------------------------------------------------------|
D|---------------------------------------------------------------------------|
A|------------------------------5-5-5-5-5-5-5-5-5-5-5-5-5-5-5----------------|
E|5-5-5-5-5-5-5-5-5-5-5-5-5-5-5----------------------------------------------|
  Woo......                               You?re my woman

G|---------------------------------------------------------------------------|
D|---------------------------------------------------------------------------|
A|--------------------------------5-5-5-5-5-5-5-5-5-5-5-5-5-5----------------|
E|5-5-5-5-5-5-5-5-5-5-5-5-5-5-5-5--------------------------------------------|
  Woo........                            Keep it comin'
G|---------------------------------------------------------------------------|
D|---------------------------------------------------------------------------|
A|--------------------------------5-5-5-5-5-5-5-5-5-5-5-5-5-5-5-5-5----------|
E|5-5-5-5-5-5-5-5-5-5-5-5-5-5-5-5--------------------------------------------|
  Woo......                              Cause you?ve got........
G|---------------------------------------------------------------------------|
D|---------------------------------------------------------------------------|
A|5--------5--------5--------------------------------------------------------|
E|-----5--------5--------5---0-----------------------------------------------|
  Save us, save us, save us now                  

Intro notes x 2

Repeat lines "Keep on sending your love... Cause in the heat of battle, you've got something 
              that can save us, save us now."

This is NOT perfect. It is my first tab.
===============================================================================
less
plus
Add to Songbook Print Version How to play lesson Submit videolesson
Click the best TAGS for this song:
None of them
Contributor: Gambwate Correct

If you can not find the chords or tabs you want, look at our partner E-chords. If you are a premium member, you have total access to our video lessons.

If you find a wrong Bad To Me from Paul McCartney, click the correct button above.

login/signup
my songbooks
my recent views
my submits