S Paul McCartney

This never happened before bass

Paul McCartney

Album:Chaos And Creation in the Back Yard

Year:2005

tools Ultimate Tabs

Start AutoScroll Font Size Down Font Size Up

Find us on Facebook

chords
tabs
bass
ukulele keyboards
drums
flute
harmonica
guitar pro video
Ultimate-Tabs

This never happened before

Paul McCartney - This never happened Before

Tabbed by Sutton

I heard this bass line and loved it, looked for a tab and didn't find anything so I did
I could on my own. You'll have to listen to the song for timing as I did a really lame
notating time.

Intro: (as close as I could get)

G|----------14-12-----------14-12-----14-12-11-9-7----|
D|----12h14--------14-----14-----1214-----------------|
A|-12----------------12-------------------------------|
E|----------------------------------------------------|

G|-------------------|
D|-------------------|  X2
A|12--12-12----7--7-7|
E|-------------------|

verse:
("I'm very sure...")

G|-----------------------------------------|
D|-------------11-------------11-----------|    X2
A|12---12-11-------9---12--7------12---7---|
E|-----------------------------------------|

other part:
("this is the way it should be for lovers...")

G|-----------------------------------------|
D|---12------------12-----------12---------|
A|12----10------12----10-----12----10--7--7|
E|-----------------------------------------|
less
plus
Add to Songbook Print Version How to play lesson Submit videolesson
Click the best TAGS for this song:
None of them
Contributor: tmaybucc Correct

If you can not find the chords or tabs you want, look at our partner E-chords. If you are a premium member, you have total access to our video lessons.

If you find a wrong Bad To Me from Paul McCartney, click the correct button above.

login/signup
my songbooks
my recent views
my submits