S Paul McCartney

Young Boy bass

Paul McCartney

Album:Flaming Pie

Year:1997

tools Ultimate Tabs

Start AutoScroll Font Size Down Font Size Up

Find us on Facebook

chords tabs
bass
ukulele keyboards
drums
flute
harmonica
guitar pro video
Ultimate-Tabs

Young Boy

Young Boy
Taken from McCartney's 10th Studio album this song
Reached number 19 (UK) in 1997. Maccer plays nearly all
the instruments,as one would expect including Bass,
apart for lead. Steve Miller guests. Tab by bass50611.
Think it's more or less 100% as Mr. McCartney played.
Welcome any comments to [email protected]
A lovely and pleasent song. Hope you enjoy

Intro:
G|--------------------|
D|------NO BASS-------|
A|------ON INTRO------|
E|--------------------|

Verse:
G|---------------------------------------------------------------|
D|-----------------2---2---3---5-------------------2---2---3---5-|
A|-3---3---------------------------3-----------------------------|
E|---------5---5-----------------------3---5---5-----------------|

G|----------------------------------------------------------------|
D|----------------------------------------------2---2---3---3-5-5-|
A|------------------------5-555---3-------------------------------|
E|-1---1---3---3---5-555-------------3---5---0--------------------|

Verse 2:
G|---------------------------------------------------------------|
D|-------------------------------------------------2---2---3---5-|
A|-3-3-------------------------------3---------7-----------------|
E|-----33---5---5---0---0---1---3--------3---5-------------------|

G|----------------------------------------------------------------|
D|----------------------------------------------2---2---3---3-5-5-|
A|------------------------5-555---3-------------------------------|
E|-1---1---3---3---5-555-------------3---5---0--------------------|

Bridge:
G|------------------------------------------------------------------------|
D|--4-5-7---3-5---4-5-7---3-5---4-5-7---3-55---3-32---------5-5-5-5-3-2-0-|
A|-7-------------7-------------7--------------------5-5-5-5---------------|
E|------------------------------------------------------------------------|

Solo:
G|------------------------------------------------------------------------|
D|------------------2-22---33---55----------------2----2---3---5---3-33-3-|
A|-3--------------------------------33------------------------------------|
E|------02345---5---------------------33-4-5---5--------------------------|

G|------------------------------75757575-|
D|-5-55-5---77777777---00000000----------|
A|---------------------------------------|
E|---------------------------------------|

Repeat Bridge:

Verse 3:
G|--------------------------------------------------------------|
D|------------------------------------------------2---2---3---5-|
A|-3---3---------------------------33---------------------------|
E|---------5---5---0---0---1---3-----33-4-5---5-----------------|
                                                      (SLOWING DOWN)
G|------------------------------------------------------------|
D|----------------------------------------------2---2---3---5-|
A|------------------------5-555---3---------------------------|
E|-1---1---3---3---5-555-------------3---5---0----------------|

Slow Bit:
   .      (PLAY THIS BIT x 2
G|-------------------------------------|
D|-------------------------------------|
A|-3-----------------------------------|
E|-------0-2-3-4-5---5---0---0---1---3-|

Outro:
G|---------------------------------------------------------------|
D|--4-5-7--54---3-33-5---4-5-7--54---3-33-5---4-5-7--54---3-33-5-|
A|-7--------------------7--------------------7-------------------|
E|---------------------------------------------------------------|

G|---------------------------2------------|
D|--4-5-7--54---3---5----2-5----3---5-----|
A|-7--------------------3---------------3-|
E|----------------------------------------|
less
plus
Add to Songbook Print Version How to play lesson Submit videolesson
Click the best TAGS for this song:
None of them
Contributor: Mortraic Correct

If you can not find the chords or tabs you want, look at our partner E-chords. If you are a premium member, you have total access to our video lessons.

If you find a wrong Bad To Me from Paul McCartney, click the correct button above.

login/signup
my songbooks
my recent views
my submits