Paul McCrane

Is It Okay If I Call You Mine? tab

Paul McCrane

tools Ultimate Tabs

Start AutoScroll Font Size Down Font Size Up

Find us on Facebook

chords
tabs
bass
ukulele keyboards
drums
flute
harmonica
guitar pro video
Ultimate-Tabs

Is It Okay If I Call You Mine?

#----------------------------------PLEASE NOTE--------------------------------#
#This file is the author's own work and represents their interpretation of the#
#song. You may only use this file for private study, scholarship, or research.#
#-----------------------------------------------------------------------------#

Date: Mon, 16 Mar 1998 22:21:10 -0800
From: Emerson Habacon Aguilar 
Subject: m/mccrane_paul/is_it_okay_if_i_call_you_mine.crd


To:   Faye M. Herrera
From: Sony H. Aguilar


Is It Okay If I Call You Mine?
by Paul McCrane
OST from the motion picture FAME


Intro: C 2x(see note below)

C         G                 Bb
 Is it okay if I call you mine
A           Dm Dm+M7 Dm7 Dm6
 Just for a time
     F       G       Am
 And I will be just fine
      F             Dm
 If I know that you know
        G                         C G Bb
 That I'm wanting, needing you love
        A   Dm Dm+M7 Dm7 Dm6
 Oh woh woh woh

C              G              Bb
 If I ask of you is it all right
                 A       Dm
 If I ask you to hold me tight
           Dm+M7           Dm7 Dm6
 Through a cold and dark night
              F          G             Am
 'Cause there may be a cloudy day in sight
       F               Dm
 And I need to let you know
            G                   C G Bb
 That I might be needing you love
        A   Dm Dm+M7 Dm7 Dm6
 Oh woh woh woh


Refrain:
	    F                    G               Am
	And what I'm trying to say isn't really new
	              F                     Dm
	It's just the things that happen to me
	                   G
	When I'm reminded of you


             C
 Like when I hear your name
      G                       Bb
 Or see a place that you've been
            A               Dm
 Or see a picture of your grin
           Dm+M7                  Dm7
 Or pass a house that you've been in
                 Dm6
 One time or another
    F                    G            Am
 It sets of something in me I can't explain
       F             Dm          G
 And I can't wait to see you again
                     C G Bb
 Oh babe, I love your love
        A   Dm Dm+M7 Dm7 Dm6
 Oh woh woh woh

(Repeat refrain)

Note:

Intro  E||----8-----8------8------------8--------|
       B||----8-----8------8--------8------------|
       G||----9-----9------9h10---(10)-----10----|
       D||---10----10----------------------------|
       A||---10----10----(10)--------------------|
       E||----8----(8)---------------------------|

       E||----8-----8-----(8)-----------8--------|
       B||----8-----8-----(8)-------8------------|
       G||----9-----9-----(9)--------------10----|
       D||---10----10----(10)--------------------|
       A||---10----10----(10)--------------------|
       E||----8----(8)---------------------------|

       (8)     the note is still ringing from a previous hit
       9h10    pick fret nine then hammer on fret ten


Chords:
              C      G      Bb     A      Dm     Dm+M7  Dm7
       E||----8------3------6------5------5------5------5----|
       B||----8------3------6------5------6------6------6----|
       G||----9------4------7------6------7------6------5----|
       D||---10------5------8------7------7------7------7----|
       A||---10------5------8------7------5------5------5----|
       E||----8------3------6------5-------------------------|

              Dm6    F      Am
       E||----7------3------5-------|
       B||----6------3------5-------|
       G||----7------2------5-------|
       D||-----------3------7-------|
       A||-----------3------7-------|
       E||-----------1------5-------|

*comments and suggestions are very much welcome
less
plus
Add to Songbook Print Version How to play lesson Submit videolesson
Click the best TAGS for this song:
None of them
Contributor: jlenjane Correct

If you can not find the chords or tabs you want, look at our partner E-chords. If you are a premium member, you have total access to our video lessons.

If you find a wrong Bad To Me from Paul McCrane, click the correct button above.

login/signup
my songbooks
my recent views
my submits