Paul Young

Every time you go away bass

Paul Young

tools Ultimate Tabs

Start AutoScroll Font Size Down Font Size Up

Find us on Facebook

chords tabs
bass
ukulele keyboards
drums
flute
harmonica
guitar pro video
Ultimate-Tabs

Every time you go away

Made soem changes, still not perfect but its close

All 1s not 11s

This is the album version

Intro/Chorus
G|---------------------------------------------10---9---7-----------------|
D|-------------7h8p7-5-----------------------7----7---7---7-5h7p5---------|
A|------3/5-55------------3-33--------3/4/5--------------------------3-33-|
E|-1-11----------------33--------1-11-----------------------------33------|

Intro part 2/Per Verse (x2 for intro, once for Pre Verse)

                                          Intro only
G|-------------------------------3/5-------|------|
D|--------3-5-3----------------------------|------|
A|------3-------5-3-1---11--1111-----3333--|-3-33-|
E|-1-11------------------------------------|------|

Verse
G|---------------------------------------------------------------------------|
D|---------------------10-12--------------------------------10/12\10---------|
A|---------------------------10-8-10-8------------------------------10-8-10b-|
E|-1111-5555-6666-8888-------------------1111-5555-6666-8888-----------------|

Pre Chorus
G|--------------------------------12-9--------------10----9----7--------|
D|---------12-14h15-14------------12-7----------------10---10---10------|
A|------12-------------12----10/12---------------------------------10-8-|
E|-10----------------------------------6-66---7-7-----------------------|

REPEAT

Bridge
G|-----------------3/5---------------------------------------3/5------|
D|-----------------------------------3-5-3----------------------------|
A|--------11--1111-----3333--------3--------5-3-1---11--1111-----3333-|
E|-1-11-1---------------------1-11------------------------------------|

Repeat Pre Chorus and Chorus

4.34
G|---------------------------------------------------10----------------------------|
D|-------------7----------------------------------------10----10-------------------|
A|------3/5--5---5--5-8-5---------3h5-33--------3/5--------10----10---------3h5-33-|
E|-1-11-------------------6--3-33----------1-11---------------------8--3-33--------|

Repeat Verse until fade out
less
plus
Add to Songbook Print Version How to play lesson Submit videolesson
Click the best TAGS for this song:
None of them
Contributor: trankloc Correct

If you can not find the chords or tabs you want, look at our partner E-chords. If you are a premium member, you have total access to our video lessons.

If you find a wrong Bad To Me from Paul Young, click the correct button above.

login/signup
my songbooks
my recent views
my submits