Peace

Waste Of Paint tab

Peace

tools Ultimate Tabs

Start AutoScroll Font Size Down Font Size Up

Find us on Facebook

chords
tabs
bass
ukulele keyboards
drums
flute
harmonica
guitar pro
video
Ultimate-Tabs

Waste Of Paint

-------------------------------------------------------------------------------
                             Waste Of Paint - Peace
-------------------------------------------------------------------------------
Tabbed by: Tom Askin
E-mail: [email protected]

Tuning: Standard
Key: F#m


Intro Riff: Based around descending motif in F#m pentatonic, 1st position at the 14 fret :) 

e|---------------------------------------------------------------------------|
B|-17--17--16--16--16-16--14--14--14-14--------------------------------------|
G|---------------------------------------14-13-11----------------------------|
D|---------------------------------------------------------------------------|
A|-14--14--14--14--14-14--14--14--14-14--12-11-9-----------------------------|
E|---------------------------------------------------------------------------|

Chords for the verse are:
F#m                           E
This feels like your last chance 
B                  A
To ever make the leap 
F#m                   E
Or hold on here forever 
B                  A
Or dive into the sea. 

etc...
It feels like your mother 
Has gone to set you free 
You're loving every minute 
It's chemical, a pesticide, a cannonball 
You're lost in time. 

Pre-Chorus Lead 'You're such an animal'

e|------------------------------------------------------------------------------|
B|------------------------------------------------------------------------------|
G|/8~8~8~9-8-6---/8~8~8~9-8-6---/9-9-9-10-9-8---7b*(8)--/9-9-9-10-9-8---7b*(8)--|
D|-------------7--------------7---------------9-----------------------9---------|
A|------------------------------------------------------------------------------|
E|------------------------------------------------------------------------------|

Chorus: 

Em                         D
You're electric honey, you blow my brain 
A                   G       F#m
Face to face, we're all the same 
Em                 D
You and me we're a waste of a paint 
A                      G      F#m
You're electric honey, electric 

Intro riff again:

e|---------------------------------------------------------------------------|
B|-17--17--16--16--16-16--14--14--14-14--------------------------------------|
G|---------------------------------------14-13-11----------------------------|
D|---------------------------------------------------------------------------|
A|-14--14--14--14--14-14--14--14--14-14--12-11-9-----------------------------|
E|---------------------------------------------------------------------------|

Repeating Riff in 2nd verse (at about 2:09)

Repeat till Pre-Chorus

e|-----------------------------------| 
B|------12h14-12---------------------|
G|----11---------14-11-14-11---------|
D|-14--------------------------------|
A|-----------------------------------|
E|-----------------------------------|


Pre-Chorus Lead 'You're such an animal'

e|------------------------------------------------------------------------------|
B|------------------------------------------------------------------------------|
G|/8~8~8~9-8-6---/8~8~8~9-8-6---/9-9-9-10-9-8---7b*(8)--/9-9-9-10-9-8---7b*(8)--|
D|-------------7--------------7---------------9-----------------------9---------|
A|------------------------------------------------------------------------------|
E|------------------------------------------------------------------------------|


This is a heavily produced track with plenty of layered and blended lead guitar parts, if you'd
like to know how to play a particular part that i've left out drop me an email.

Tom


************************************

| /   slide up
| \   slide down
| h   hammer-on
| p   pull-off
| ~   vibrato
| +   harmonic
| x   Mute note
| b   Bend
| pb  Pre-bend
| br  Bend release
| pbr Pre-bend release
| brb Bend release bend

************************************
less
plus
Add to Songbook Print Version How to play lesson Submit videolesson
Click the best TAGS for this song:
None of them
Contributor: incijhb0 Correct

If you can not find the chords or tabs you want, look at our partner E-chords. If you are a premium member, you have total access to our video lessons.

If you find a wrong Bad To Me from Peace, click the correct button above.

login/signup
my songbooks
my recent views
my submits