Pink

How Come You're Not Here bass

Pink

tools Ultimate Tabs

Start AutoScroll Font Size Down Font Size Up

Find us on Facebook

chords tabs
bass
ukulele keyboards
drums
flute
harmonica
guitar pro
video
Ultimate-Tabs

How Come You're Not Here

This is my first tab you guys! Enjoy...Hopefully.

Intro/Verses:
G| |----------------------------------------------|
D| |----------------------------------------------|
A| |-------0---0-------2---0-------0---0------2---|
E| |-2-2---------2-2---------2-2---------2-2----0-|

Chorus:
G| |---------------------------------------------------|
D| |---------------------------------------------------|
A| |--------------5-5--0-7-5---------------------------|
E| |-5-5--0-7-5----------------5-5--0-7-5---4-4--0-7-4-|


Bridge:
G| |-------------------|
D| |-------------------|
A| |-----------------0-|
E| |-2-2-2-2-2-2-2-0---|    X 7 then

G| |-------------------|
D| |-------------------|
A| |-------------------|
E| |-2-2-2-2-2-2-2-0---|
less
plus
Add to Songbook Print Version How to play lesson Submit videolesson
Click the best TAGS for this song:
None of them
Contributor: zonushea Correct

If you can not find the chords or tabs you want, look at our partner E-chords. If you are a premium member, you have total access to our video lessons.

If you find a wrong Bad To Me from Pink, click the correct button above.

login/signup
my songbooks
my recent views
my submits