Polyphia

How To Make A Riff 3 tab

Polyphia

tools Ultimate Tabs

Start AutoScroll Font Size Down Font Size Up

Find us on Facebook

chords
tabs
bass
ukulele
keyboards
drums
flute
harmonica
guitar pro
video
Ultimate-Tabs

How To Make A Riff 3

Tabbed by ear from Tim Henson's "How To Make A Riff 3", found here:
https://www.youtube.com/watch?v=dFACVIfC_EA
Please note that this may not be 100% correct to the video, and comment if you find something that doesn't
sound quite right.

*NOTE* If you're not familiar, "Hybrid Picking" or "Hyperpicking" is the use of your free fingers on your 
picking hand to pluck, rather than pick another string. Tim uses this technique frequently in his writing.
Here's a great lesson on hybrid picking: https://www.youtube.com/watch?v=aRrNW9XTctc

Intro

1st Half

e|---------hp10-----------------------hp8--|-----------------------------hp0---------|
B|--hp10\6~----------------hp10-/-11-------|--hp10----------------------------17\14--|
G|--------------------hp0------------------|--------t10/---(7)-----------------------|
D|----0------------8-----------------------|-----------------------8/19--------------|
A|--------------0--7----------9-/-10-------|----8---------------0--7-----------------|
E|-----------------6-----------------------|-----------------------6-----------------|


e|--10------------------------------------------|--9---t13p0------------------------------V17\--|
B|--6-------------------------------------------|--x--------------------------------------V17\--|
G|--7----------------9h10p9----------t14--------|--x----------t15---/9-----\6-----(12)----V18\--|
D|--0-------(7)------8-------12h11h8-------t14--|--8----------------/8-----\5-------------V19\--|
A|-------8-------0---8--------------------------|--7--------------------------------------------|
E|--------------------------------------h9------|--6--------------------------------------------|


2nd Half

e|---------hp10-----------------------hp8--|-----------------------------hp0---------|
B|--hp10\6~----------------hp10-/-11-------|--hp10----------------------------17\14--|
G|--------------------hp0------------------|--------t10/---(7)-----------------------|
D|----0------------8-----------------------|-----------------------8/19--------------|
A|--------------0--7----------9-/-10-------|----8---------------0--7-----------------|
E|-----------------6-----------------------|-----------------------6-----------------|


                                                 triplet  triplet 
e|-----10--------------------------------------------------------------|
B|-----6---------------------------------------------------------------|
G|-----7------------------------9h10p9--------------t14-------t19\18---|
D|-----0------------7-----------8----------12h11h8------------t19\17---|
A|------------8-----------0-----8-----------------------h7-------------|
E|---------------------------------------------------------h9----------|

         PM PM PM PM
  triplettriplet triplettriplet
e|-----------------------------6p5p0---------------------------V17\-----|
B|-------------------2h3p2--0----------------------------------V17\-----|
G|----------------s0-------------------*9-----*6-----*(12)-----V18\-----|
D|-------------s0----------------------*8-----*5---------------V19\-----|
A|--1p0-----s0----------------------------------------------------------|
E|-------s1-------------------------------------------------------------|


***********************************

| x   Dead note
| /   Slide-up
| \   Slide-down
| hp  Hybrid Picking (a.k.a hyperpicking)
| ~   Vibrato
| t   Tapped
| PM  Palm muting
| ( ) Natural harmonic
| V   Backwards Rake
| *   Staccato
| s   Sweep pick

***********************************
less
plus
Add to Songbook Print Version How to play lesson Submit videolesson
Click the best TAGS for this song:
None of them
Contributor: Anonymous Correct

If you can not find the chords or tabs you want, look at our partner E-chords. If you are a premium member, you have total access to our video lessons.

If you find a wrong Bad To Me from Polyphia, click the correct button above.

login/signup
my songbooks
my recent views
my submits