tools Ultimate Tabs

Start AutoScroll Font Size Down Font Size Up

Find us on Facebook

chords
tabs
bass
ukulele
keyboards
drums
flute
harmonica
guitar pro
video
Ultimate-Tabs

Mabu

Lead Guitar

eb|-12---12---15--15--15---15---15--15--|-20---17---------------20---17-----17--17--|
Bb|-13---13---12--12--13---13---12--12--|----------20-17-----------------20-18--18--|
Gb|-12---12---12--12--12---12---12--12--|-----------------19-17-------------17--17--|
Db|-14---14---12--12--14---14---12--12--|-----------------------------------19--19--|
Ab|-------------------------------------|-------------------------------------------|
Eb|-------------------------------------|-------------------------------------------|


eb|-12---12---15--15--15---15---15--15--|-20---17---------------20---17-----17----------|
Bb|-13---13---12--12--13---13---12--12--|----------20-17-----------------20-18----------|
Gb|-12---12---12--12--12---12---12--12--|-----------------19-17-------------17----------|
Db|-14---14---12--12--14---14---12--12--|-----------------------------------19----------|
Ab|-------------------------------------|-----------------------------------------------|
Eb|-------------------------------------|-----------------------------------------------|


eb|--------|--------------|--------|-------------------------------------13----------|
Bb|--------|--------------|--------|-------------------------------------15----------|
Gb|--------|--------------|--------|----------------------------------14-14----------|
Db|--------|--------------|--------|-------------------------------------------------|
Ab|--------|--------------|--------|-------------------------------------------------|
Eb|--------|--------------|--------|-------------------------------------------------|


eb|-17-----19-----|-20---20--19--17------------------------------|
Bb|-18-----18-----|-17---------------17----------17--------------|
Gb|-19-----19-----|-17-------------------17--19------17-19---17--|
Db|--------17-----|-17-------------------------------------------|
Ab|---------------|----------------------------------------------|
Eb|---------------|----------------------------------------------|

eb|-17--17--17--17--17--17--17----------------------|
Bb|-18--18--18--18--18--18--18----------------------|
Gb|-17--17--17--17--17--17--17----------------------|
Db|-19--19--19--19--19--19--19----------------------|
Ab|-------------------------------------------------|
Eb|-------------------------------------------------|



eb|-12---12---15--15--15---15---15--15--|-20---17---------------20---17-----17--17--|
Bb|-13---13---12--12--13---13---12--12--|----------20-17-----------------20-18--18--|
Gb|-12---12---12--12--12---12---12--12--|-----------------19-17-------------17--17--|
Db|-14---14---12--12--14---14---12--12--|-----------------------------------19--19--|
Ab|-------------------------------------|-------------------------------------------|
Eb|-------------------------------------|-------------------------------------------|


eb|-12---12---15--15--15---15---15--15--|-20---17---------------20---17-----17--17--|
Bb|-13---13---12--12--13---13---12--12--|----------20-17-----------------20-18--18--|
Gb|-12---12---12--12--12---12---12--12--|-----------------19-17-------------17--17--|
Db|-14---14---12--12--14---14---12--12--|-----------------------------------19--19--|
Ab|-------------------------------------|-------------------------------------------|
Eb|-------------------------------------|-------------------------------------------|


eb|------------------------------------------------------|
Bb|-----8--8--8--8--8------------8--8--8--8--8-------10--|
Gb|---------------------9------------------------9-------|
Db|-------------------------10---------------------------|
Ab|------------------------------------------------------|
Eb|------------------------------------------------------|

eb|------------------------------------------------------|
Bb|-----8--8--8--8--8------------------------------------|
Gb|---------------------9--------------------------------|
Db|-------------------------10---12-12-12-12-14--12--10--|
Ab|------------------------------------------------------|
Eb|------------------------------------------------------|

eb|------------------------------------------------------|
Bb|-----8--8--8--8--8------------8--8--8--8--8-------10--|
Gb|---------------------9------------------------9-------|
Db|-------------------------10---------------------------|
Ab|------------------------------------------------------|
Eb|------------------------------------------------------|

eb|-------------------------------------------------|
Bb|-----8---8-------12--12------13--13------15--15--|
Gb|-----9---9-------12--12------14--14------16--16--|
Db|-------------------------------------------------|
Ab|-------------------------------------------------|
Eb|-------------------------------------------------|

eb|-----12--12------12-12-12-12-----12-12-12-12-------12--12--|
Bb|-----13--13------13-13-13-13-----13-13-13-13-------13--13--|
Gb|-----12--12------12-12-12-12-----12-12-12-12-------12--12--|
Db|-----------------------------------------------------------|
Ab|-----------------------------------------------------------|
Eb|-----------------------------------------------------------|


eb|-----17--17------17-17-17-17-----17-17-17-17-----17--17--|
Bb|-----17--17------17-17-17-17-----17-17-17-17-----17--17--|
Gb|-----17--17------17-17-17-17-----17-17-17-17-----17--17--|
Db|-----19--19------19-19-19-19-----19-19-19-19-----19--19--|
Ab|---------------------------------------------------------|
Eb|---------------------------------------------------------|

eb|-----12--12------12-12-12-12-----12-12-12-12-------12--12--|
Bb|-----13--13------13-13-13-13-----13-13-13-13-------13--13--|
Gb|-----12--12------12-12-12-12-----12-12-12-12-------12--12--|
Db|-----------------------------------------------------------|
Ab|-----------------------------------------------------------|
Eb|-----------------------------------------------------------|


eb|-----17--17------17-17-17-17-----17-17-17-17-----17--17--|
Bb|-----17--17------17-17-17-17-----17-17-17-17-----17--17--|
Gb|-----17--17------17-17-17-17-----17-17-17-17-----17--17--|
Db|-----19--19------19-19-19-19-----19-19-19-19-----19--19--|
Ab|---------------------------------------------------------|
Eb|---------------------------------------------------------|


eb|-17-----19-----|-20---20--19--17------------------------------|
Bb|-18-----18-----|-17---------------17----------17--------------|
Gb|-19-----19-----|-17-------------------17--19------17-19---17--|
Db|--------17-----|-17-------------------------------------------|
Ab|---------------|----------------------------------------------|
Eb|---------------|----------------------------------------------|

eb|-------------------------------------------------|
Bb|---------------------------------17--------------|
Gb|---------17--------------17--19------17-19---17--|
Db|-17--19------17-19---17--------------------------|
Ab|-------------------------------------------------|
Eb|-------------------------------------------------|

    bend up a step
eb|----------------------|-17--17--17--17--17--17--17----------------------|
Bb|----------------------|-18--18--18--18--18--18--18----------------------|
Gb|-----19^-----19---17--|-17--17--17--17--17--17--17----------------------|
Db|----------------------|-19--19--19--19--19--19--19----------------------|
Ab|----------------------|-------------------------------------------------|
Eb|----------------------|-------------------------------------------------|

eb|---------------------------------------------|
Bb|-----------------------17---17--17-20-17-20--|
Gb|-17---17--17-19-17-19------------------------|
Db|---------------------------------------------|
Ab|---------------------------------------------|
Eb|---------------------------------------------|

eb|-17---17--17-----------17---17--17-------------|---------------------------------------------|
Bb|-------------20-17-20--------------20-19-17-19-|-----------------------17---17--17-20-17-20--|
Gb|-----------------------------------------------|-17---17--17-19-17-19------------------------|
Db|-----------------------------------------------|---------------------------------------------|
Ab|-----------------------------------------------|---------------------------------------------|
Eb|-----------------------------------------------|---------------------------------------------|


eb|-17---17--17-----------17---17--17-20-17-20-17-|-20---20--20-22-22-22-22-19---19--19-20-19-20-19-|
Bb|-------------20-17-20--------------------------|-------------------------------------------------|
Gb|-----------------------------------------------|-------------------------------------------------|
Db|-----------------------------------------------|-------------------------------------------------|
Ab|-----------------------------------------------|-------------------------------------------------|
Eb|-----------------------------------------------|-------------------------------------------------|


eb|-17---19--17-20-17-20-17------17--19-17--19--|-20---20--20-22-22-22-22-19---19--19-20-19-20-19-|
Bb|-------------------------20------------------|-------------------------------------------------|
Gb|---------------------------------------------|-------------------------------------------------|
Db|---------------------------------------------|-------------------------------------------------|
Ab|---------------------------------------------|-------------------------------------------------|
Eb|---------------------------------------------|-------------------------------------------------|


eb|-17---19--17-20-17-20-17-------------------------------|---------------------------------------------|
Bb|-------------------------20-19-17-19-17----------------|-----------------------17---17--17-20-17-20--|
Gb|----------------------------------------20-19-17-17-19-|-17---17--17-19-17-19------------------------|
Db|-------------------------------------------------------|---------------------------------------------|
Ab|-------------------------------------------------------|---------------------------------------------|
Eb|-------------------------------------------------------|---------------------------------------------|


eb|-17---17--17-----------17---17--17-20-17-20-17-|------------------------------|
Bb|-------------20-17-20--------------------------|-20----17----20-17-20-17-20---|
Gb|-----------------------------------------------|------------------------------|
Db|-----------------------------------------------|------------------------------|
Ab|-----------------------------------------------|------------------------------|
Eb|-----------------------------------------------|------------------------------|


eb|-17-------17--17--17------17--19--20--|------------------------------|
Bb|----20---------------20---------------|-20----17----20-17-20-17-20---|
Gb|--------------------------------------|------------------------------|
Db|--------------------------------------|------------------------------|
Ab|--------------------------------------|------------------------------|
Eb|--------------------------------------|------------------------------|

eb|-17-------17--17--17------------------|
Bb|----20---------------20---------------|
Gb|--------------------------------------|
Db|--------------------------------------|
Ab|--------------------------------------|
Eb|--------------------------------------|


eb|-17-----19-----|-20---20--19--17------------------------------|
Bb|-18-----18-----|-17---------------17----------17--------------|
Gb|-19-----19-----|-17-------------------17--19------17-19---17--|
Db|--------17-----|-17-------------------------------------------|
Ab|---------------|----------------------------------------------|
Eb|---------------|----------------------------------------------|

eb|-17--17--17--17--17--17--17--17--17--17--17--17--|
Bb|-18--18--18--18--18--18--18--18--18--18--18--18--|
Gb|-17--17--17--17--17--17--17--17--17--17--17--17--|
Db|-19--19--19--19--19--19--19--19--19--19--19--19--|
Ab|-------------------------------------------------|
Eb|-------------------------------------------------|


eb|-12---12---15--15--15---15---15--15--|-20---17---------------20---17-----17--17--|
Bb|-13---13---12--12--13---13---12--12--|----------20-17-----------------20-18--18--|
Gb|-12---12---12--12--12---12---12--12--|-----------------19-17-------------17--17--|
Db|-14---14---12--12--14---14---12--12--|-----------------------------------19--19--|
Ab|-------------------------------------|-------------------------------------------|
Eb|-------------------------------------|-------------------------------------------|


eb|-12---12---15--15--15---15---15--15--|-20---17---------------20---17-----17----------|
Bb|-13---13---12--12--13---13---12--12--|----------20-17-----------------20-18----------|
Gb|-12---12---12--12--12---12---12--12--|-----------------19-17-------------17----------|
Db|-14---14---12--12--14---14---12--12--|-----------------------------------19----------|
Ab|-------------------------------------|-----------------------------------------------|
Eb|-------------------------------------|-----------------------------------------------|





Rhythm Guitar

eb|-------------------------------------|-------------------------------------|
Bb|-----------12--12------------12--12--|-------------------------------------|
Gb|-----------12--12------------12--12--|-5----5----9---9---5----5----9---9---|
Db|-----------12--12------------12--12--|-7----7----10--10--7----7----10--10--|
Ab|-----------10--10------------10--10--|-7----7----10--10--7----7----10--10--|
Eb|-------------------------------------|-5----5----8---8---5----5----8---8---|

eb|-------------------------------------|
Bb|-----------12--12------------12--12--|
Gb|-9----9----12--12--9----9----12--12--|
Db|-10---10---12--12--10---10---12--12--|
Ab|-10---10---10--10--10---10---10--10--|
Eb|-8----8------------8----8------------|

eb|-----------------------------------------|-----------------------------------------------------|
Bb|-----------------------------------------|-----------------------------------------------------|
Gb|-5----5----9---9---5----5----9-----------|-----------------------------------------------------|
Db|-7----7----10--10--7----7----10----------|-----------------------------------------------------|
Ab|-7----7----10--10--7----7----10----------|---------------7---7---7-----------------7---7---7---|
Eb|-5----5----8---8---5----5----8-----------|-8----8--8--8--------------8----8--8--8--------------|


eb|-------------------------------------------------|-----------------------------------------------------|
Bb|-------------------------------------------------|-----------------------------------------------------|
Gb|-------------------------------------------------|-----------------------------------------------------|
Db|-------------------------------------------------|-----------------------------------------------------|
Ab|-------------------------------------8---8---8---|---------------7---7---7-----------------7---7---7---|
Eb|-5----5--5--5--8---8---5----5--5--5--------------|-8----8--8--8--------------8----8--8--8--------------|


eb|-------------------------------------------------|-5-----5---5---0---------------------|
Bb|-------------------------------------------------|-6-----6---6---0---12----12--0---0---|
Gb|-------------------------------------------------|-7-----7---7---0---12----12--0---0---|
Db|-------------------------------------------------|-7-----7---7---0---12----12--0---0---|
Ab|-------------------------------------8-----------|-5-----5---0---0---10----10--0---0---|
Eb|-5----5--5--5--8---8---5----5--5--5--------------|-------------------------------------|


eb|-----------5---0---------------------|-5---5---5---5---5---5---------------------------|
Bb|-----------6---0-------------0---0---|-6---6---6---6---6---6---10----------------------|
Gb|-9-----9---7---0---5-----5---0---0---|-7---7---7---7---7---7---10----------------------|
Db|-10----10--7---0---7-----7---0---0---|-7---7---7---7---7---7---10----------------------|
Ab|-10----10--0---0---7-----7---0---0---|-5---5---5---5---5---5---8-----------------------|
Eb|-8-----8-----------5-----5-----------|-------------------------------------------------|


eb|-------------------------------------|-------------------------------------|
Bb|-----------12--12------------12--12--|-------------------------------------|
Gb|-9----9----12--12--9----9----12--12--|-5----5----9---9---5----5----9---9---|
Db|-10---10---12--12--10---10---12--12--|-7----7----10--10--7----7----10--10--|
Ab|-10---10---10--10--10---10---10--10--|-7----7----10--10--7----7----10--10--|
Eb|-8----8------------8----8------------|-5----5----8---8---5----5----8---8---|

eb|-------------------------------------|
Bb|-----------12--12------------12--12--|
Gb|--9----9----12--12--9----9----12--12--|
Db|-10---10---12--12--10---10---12--12--|
Ab|-10---10---10--10--10---10---10--10--|
Eb|-8----8------------8----8------------|

eb|-------------------------------------|---------------------------------------------|
Bb|-------------------------------------|---------------------------------------------|
Gb|-5----5----9---9---5----5----9---9---|-------9---0--0--0--0--------9---0--0--0--0--|
Db|-7----7----10--10--7----7----10--10--|-------10--0--0--0--0--------10--0--0--0--0--|
Ab|-7----7----10--10--7----7----10--10--|-------10--0--0--0--0--------10--0--0--0--0--|
Eb|-5----5----8---8---5----5----8---8---|-8-----8---0--0--0--0--8-----8---0--0--0--0--|


eb|---------------------------------------------|---------------------------------------------|
Bb|---------------------------------------------|---------------------------------------------|
Gb|-------5---0--0--0--0--------7---0--0--0--0--|-------9---0--0--0--0--------9---0--0--0--0--|
Db|-------7---0--0--0--0--------7---0--0--0--0--|-------10--0--0--0--0--------10--0--0--0--0--|
Ab|-------7---0--0--0--0--------7---0--0--0--0--|-------10--0--0--0--0--------10--0--0--0--0--|
Eb|-5-----5---0--0--0--0--5-----5---0--0--0--0--|-8-----8---0--0--0--0--8-----8---0--0--0--0--|


eb|---------------------------------------------------------|
Bb|---------------------------------------------------------|
Gb|-5----0--0--0--5----0--0--0--5----0--0--0--5----0--0--0--|
Db|-7----0--0--0--7----0--0--0--7----0--0--0--7----0--0--0--|
Ab|-7----0--0--0--7----0--0--0--7----0--0--0--7----0--0--0--|
Eb|-5----0--0--0--5----0--0--0--5----0--0--0--5----0--0--0--|

eb|-----------------------------------------------------------------|
Bb|-----------------------------------------------------------------|
Gb|-9---9--9--9--9--9---9--9--9--9--9---9--9--9--9--9---9--9--9--9--|
Db|-10--10-10-10-10-10--10-10-10-10-10--10-10-10-10-10--10-10-10-10-|
Ab|-10--10-10-10-10-10--10-10-10-10-10--10-10-10-10-10--10-10-10-10-|
Eb|-8---8--8--8--8--8---8--8--8--8--8---8--8--8--8--8---8--8--8--8--|

eb|-----------------------------------------------------------------|
Bb|-----------------------------------------------------------------|
Gb|-5---5--5--5--5--5---5--5--5--5--5---5--5--5--5--5---5--5--5--5--|
Db|-7---7--7--7--7--7---7--7--7--7--7---7--7--7--7--7---7--7--7--7--|
Ab|-7---7--7--7--7--7---7--7--7--7--7---7--7--7--7--7---7--7--7--7--|
Eb|-5---5--5--5--5--5---5--5--5--5--5---5--5--5--5--5---5--5--5--5--|

eb|-----------------------------------------------------------------|
Bb|-----------------------------------------------------------------|
Gb|-9---9--9--9--9--9---9--9--9--9--9---9--9--9--9--9---9--9--9--9--|
Db|-10--10-10-10-10-10--10-10-10-10-10--10-10-10-10-10--10-10-10-10-|
Ab|-10--10-10-10-10-10--10-10-10-10-10--10-10-10-10-10--10-10-10-10-|
Eb|-8---8--8--8--8--8---8--8--8--8--8---8--8--8--8--8---8--8--8--8--|


eb|-----------------------------------------------------------------|-5-----5---5---0---------------------|
Bb|-----------------------------------------------------------------|-6-----6---6---0---12----12--0---0---|
Gb|-5---5--5--5--5--5---5--5--5--5--5---5--5--5--5--5---5--5--5--5--|-7-----7---7---0---12----12--0---0---|
Db|-7---7--7--7--7--7---7--7--7--7--7---7--7--7--7--7---7--7--7--7--|-7-----7---7---0---12----12--0---0---|
Ab|-7---7--7--7--7--7---7--7--7--7--7---7--7--7--7--7---7--7--7--7--|-5-----5---0---0---10----10--0---0---|
Eb|-5---5--5--5--5--5---5--5--5--5--5---5--5--5--5--5---5--5--5--5--|-------------------------------------|


eb|-----------5---0---------------------|-5-----5---5---0---------------------|
Bb|-----------6---0-------------0---0---|-6-----6---6---0---12----12--0---0---|
Gb|-9-----9---7---0---5-----5---0---0---|-7-----7---7---0---12----12--0---0---|
Db|-10----10--7---0---7-----7---0---0---|-7-----7---7---0---12----12--0---0---|
Ab|-10----10--0---0---7-----7---0---0---|-5-----5---0---0---10----10--0---0---|
Eb|-8-----8-----------5-----5-----------|-------------------------------------|

eb|-----------5---0---------------------|
Bb|-----------6---0-------------0---0---|
Gb|-9-----9---7---0---5-----5---0---0---|
Db|-10----10--7---0---7-----7---0---0---|
Ab|-10----10--0---0---7-----7---0---0---|
Eb|-8-----8-----------5-----5-----------|

eb|-5---5---5---5---5---5---------------------------|-------------|-------------|-------------|
Bb|-6---6---6---6---6---6---10----------------------|-------------|-------------|-------------|
Gb|-7---7---7---7---7---7---10----------------------|-9------9----|-5------5----|-9------9----|
Db|-7---7---7---7---7---7---10----------------------|-10-----10---|-7------7----|-10-----10---|
Ab|-5---5---5---5---5---5---8-----------------------|-10-----10---|-7------7----|-10-----10---|
Eb|-------------------------------------------------|-8------8----|-5------5----|-8------8----|


eb|-------------|-------------|-------------|-------------|-------------|-------------|
Bb|-------------|-------------|-------------|-------------|-------------|-------------|
Gb|-5------5----|-9------9----|-5------5----|-9------9----|-5------5----|-9------9----|
Db|-7------7----|-10-----10---|-7------7----|-10-----10---|-7------7----|-10-----10---|
Ab|-7------7----|-10-----10---|-7------7----|-10-----10---|-7------7----|-10-----10---|
Eb|-5------5----|-8------8----|-5------5----|-8------8----|-5------5----|-8------8----|


eb|-------------|-----------------------------------------------------------|
Bb|-------------|-----------------------------------------------------------|
Gb|-9------9----|-9---9--9--9--9--9---9--9--9--9--9---9--9--9--9--9---9--9--|
Db|-10-----10---|-10--10-10-10-10-10--10-10-10-10-10--10-10-10-10-10--10-10-|
Ab|-10-----10---|-10--10-10-10-10-10--10-10-10-10-10--10-10-10-10-10--10-10-|
Eb|-8------8----|-8---8--8--8--8--8---8--8--8--8--8---8--8--8--8--8---8--8--|

eb|---------------------------------------------------------------|
Bb|---------------------------------------------------------------|
Gb|-5---5--5--5--5--5---5--5--5--5--5---5--5--5--5--5---5--5--5---|
Db|-7---7--7--7--7--7---7--7--7--7--7---7--7--7--7--7---7--7--7---|
Ab|-7---7--7--7--7--7---7--7--7--7--7---7--7--7--7--7---7--7--7---|
Eb|-5---5--5--5--5--5---5--5--5--5--5---5--5--5--5--5---5--5--5---|

eb|-----------------------------------------------------------|
Bb|-----------------------------------------------------------|
Gb|-9---9--9--9--9--9---9--9--9--9--9---9--9--9--9--9---9--9--|
Db|-10--10-10-10-10-10--10-10-10-10-10--10-10-10-10-10--10-10-|
Ab|-10--10-10-10-10-10--10-10-10-10-10--10-10-10-10-10--10-10-|
Eb|-8---8--8--8--8--8---8--8--8--8--8---8--8--8--8--8---8--8--|

eb|---------------------------------------------------------------|
Bb|---------------------------------------------------------------|
Gb|-5---5--5--5--5--5---5--5--5--5--5---5--5--5--5--5-------------|
Db|-7---7--7--7--7--7---7--7--7--7--7---7--7--7--7--7-------------|
Ab|-7---7--7--7--7--7---7--7--7--7--7---7--7--7--7--7-------------|
Eb|-5---5--5--5--5--5---5--5--5--5--5---5--5--5--5--5-------------|


eb|-5-----5---5---0---------------------|-----------5---0---------------------|
Bb|-6-----6---6---0---12----12--0---0---|-----------6---0-------------0---0---|
Gb|-7-----7---7---0---12----12--0---0---|-9-----9---7---0---5-----5---0---0---|
Db|-7-----7---7---0---12----12--0---0---|-10----10--7---0---7-----7---0---0---|
Ab|-5-----5---0---0---10----10--0---0---|-10----10--0---0---7-----7---0---0---|
Eb|-------------------------------------|-8-----8-----------5-----5-----------|

eb|-5---5---5---5---5---5---5---5---5---5---5---5---|
Bb|-6---6---6---6---6---6---6---6---6---6---6---6---|
Gb|-7---7---7---7---7---7---7---7---7---7---7---7---|
Db|-7---7---7---7---7---7---7---7---7---7---7---7---|
Ab|-5---5---5---5---5---5---5---5---5---5---5---5---|
Eb|-------------------------------------------------|

eb|-------------------------------------|-------------------------------------|
Bb|-----------12--12------------12--12--|-------------------------------------|
Gb|-9----9----12--12--9----9----12--12--|-5----5----9---9---5----5----9---9---|
Db|-10---10---12--12--10---10---12--12--|-7----7----10--10--7----7----10--10--|
Ab|-10---10---10--10--10---10---10--10--|-7----7----10--10--7----7----10--10--|
Eb|-8----8------------8----8------------|-5----5----8---8---5----5----8---8---|

eb|-------------------------------------|
Bb|-----------12--12------------12--12--|
Gb|-9----9----12--12--9----9----12--12--|
Db|-10---10---12--12--10---10---12--12--|
Ab|-10---10---10--10--10---10---10--10--|
Eb|-8----8------------8----8------------|

eb|-----------------------------------------|
Bb|-----------------------------------------|
Gb|-5----5----9---9---5----5----9-----------|
Db|-7----7----10--10--7----7----10----------|
Ab|-7----7----10--10--7----7----10----------|
Eb|-5----5----8---8---5----5----8-----------|



less
plus
Add to Songbook Print Version How to play lesson Submit videolesson
Click the best TAGS for this song:
None of them
Contributor: Anonymous Correct

If you can not find the chords or tabs you want, look at our partner E-chords. If you are a premium member, you have total access to our video lessons.

If you find a wrong Bad To Me from Pup, click the correct button above.

login/signup
my songbooks
my recent views
my submits