Radiohead

Creep bass

Radiohead

Album:Pablo Honey

Year:1993

tools Ultimate Tabs

Start AutoScroll Font Size Down Font Size Up

Find us on Facebook

Ultimate-Tabs

Creep

e-mail:[email protected] 
  
        G                G               B               B 
G|---------------|---------------|---------------|---------------| 
D|---------------|---------------|---------------|---------------| 
A|---------------|---------------|-2---2-2-2---2-|-2---2-2-2---2-| 
E|-3---3-3-3---3-|-3---3-3-3---3-|---------------|---------------| 
        C              C              Cm             Cm 
|---------------|--------------|---------------|--------------| 
|---------------|--------------|---------------|-----------3--| 
|-3---3-3-3---3-|-3---3-3-3---3|-3---3-3-3---3-|-3--5--6------| 
|---------------|--------------|---------------|--------------|  
less
plus
Add to Songbook Print Version How to play lesson Submit videolesson
Click the best TAGS for this song:
None of them
Contributor: bwh0bull Correct

If you can not find the chords or tabs you want, look at our partner E-chords. If you are a premium member, you have total access to our video lessons.

If you find a wrong Bad To Me from Radiohead, click the correct button above.

login/signup
my songbooks
my recent views
my submits