Radiohead

How I Made My Millions chords

Radiohead

tools Ultimate Tabs

Start AutoScroll Font Size Down Font Size Up

Find us on Facebook

chords
tabs
bass
ukulele keyboards
drums
flute
harmonica
guitar pro video
Ultimate-Tabs

How I Made My Millions

Part I: the A chord. Like this: X00555. 

 
E|------------5-------5------5|---------for the--------------5------5------5----4-----| 
B|--------5------5-------5------5|-------4th time---------5-----5------5--------------| 
G|--------------------------------------(I will --------------------------------------| 
D|---------------------------------------mark it *)-----------------------------------| 
A|---0|----------------------------------it played-----0------------------------------| 
E|---------------------------------------like this:-----------------------------------| 
Part II: the C#m chord. Like this: XXX654 - XXX657
 
E|------------4------4-----4-----------------------4-----7-----7-------| 
B|---------5-----5------5-----5---------------5-----5------5------5----| 
G|-----6------------------------------------6--------------------------| 
D|---------------------------------------------------------------------| 
A|---------------------------------------------------------------------| 
E|---------------------------------------------------------------------| 
Notice: the C#m chord is longer then the A one. Part III: the D chord. Like this: XX0705
 
E|-----------5------5------5--------| 
B|----------------------------------| 
G|-------7------7------7------7-----| 
D|---0------------------------------| 
A|----------------------------------| 
E|----------------------------------| 
Part IV: the Bm chord. Like this: 7XX777
 
E|------------------7------7-------| 
B|-----------7---------------------| 
G|-------7------7------7------7----| 
D|---------------------------------| 
A|---------------------------------| 
E|---7-----------------------------| 
Part V: the C#m chord, again. Like this: X44454 - X44457. On the lyrics it will show up as C#m(2)
 
E|------------4------4-----4-----------------------4-----7-----7---------| 
B|---------5-----5------5-----5---------------5-----5------5------5------| 
G|-----------------------------------------------------------------------| 
D|-----------------------------------------------------------------------| 
A|----4----------------------------------4-------------------------------| 
E|-----------------------------------------------------------------------| 
Intro: A C#m A A I was stronger______ C#m A A I was better______ D D Bm Bm Picked you__ oooout______ A C#m(2) A A Now don't say a word ______ C#m(2) A A No don't yell out ______ D D Bm Bm Never mind A C#m(2) A A Led you out_______ C#m(2) A A Led you back______ D D Stay on Bm Bm A A Stay down______ Bm Bm A D D Let it fall Bm Bm Let it fall A D D Let it fall Bm Bm Let it fall A
less
plus
Add to Songbook Print Version How to play lesson Submit videolesson
Click the best TAGS for this song:
None of them
Contributor: farktspt Correct

If you can not find the chords or tabs you want, look at our partner E-chords. If you are a premium member, you have total access to our video lessons.

If you find a wrong Bad To Me from Radiohead, click the correct button above.

login/signup
my songbooks
my recent views
my submits