Radiohead

Nude tab

Radiohead

Album:In Rainbows

Year:2007

tools Ultimate Tabs

Start AutoScroll Font Size Down Font Size Up

Find us on Facebook

chords
tabs
bass ukulele keyboards
drums
flute
harmonica
guitar pro video
Ultimate-Tabs

Nude

 Intro: segundo parrafo 
e|-------4-----------4-----------4-----------4-----------5-----------0--------- 
B|-----4---4-------4---4-------4---4-------4---4-------5---5-------0---0------- 
G|---4-------4---4-------4---5-------5---5-------5---6-------6---1-------1----- 
D|-6-----------6-----------6-----------6-----------7-----------2-----------1--- 
A|----------------------------------------------------------------------------- 
E|----------------------------------------------------------------------------- 
  

e|--------9------------9-----------7-----------7----------| 
B|------9---9--------9---9-------7---7-------7---7--------| 
G|----9-------9----9-------9---8-------8---8-------8------| 
D|-11-----------11-----------9-----------9----------------|  
A|--------------------------------------------------------| 
E|--------------------------------------------------------| 

   


 tercer parrafo 
e|-----------------------------------7-------------7---------| 
B|---4---7-5-4-----4---7-5-4-----5-------5-----5-------5-----| 
G|-----4-------4-----4-------4-----6---6---6-----6---6---6---| 
D|-6-------------6-------------7-------------7---------------| x2 
A|-----------------------------------------------------------| 
E|-----------------------------------------------------------| 


e|----------------------9-----------------------------| 
B|---9---12-10-9-----12---12-9------------------------| 
G|-----9---------9-------------11-9------9------9-----| 
D|-9---------------9----------------11-9---11-9-------| 
A|----------------------------------------------------| 
E|----------------------------------------------------| 



 [email protected]  
less
plus
Add to Songbook Print Version How to play lesson Submit videolesson
Click the best TAGS for this song:
None of them
Contributor: roflfark Correct

If you can not find the chords or tabs you want, look at our partner E-chords. If you are a premium member, you have total access to our video lessons.

If you find a wrong Bad To Me from Radiohead, click the correct button above.

login/signup
my songbooks
my recent views
my submits