Radiohead

Paranoid Android Acoustic tab

Radiohead

tools Ultimate Tabs

Start AutoScroll Font Size Down Font Size Up

Find us on Facebook

chords
tabs
bass
ukulele
keyboards
drums
flute
harmonica
guitar pro
video
Ultimate-Tabs

Paranoid Android Acoustic

-------------------------------------------------------------------------------
                             Paranoid Android - Radiohead
-------------------------------------------------------------------------------
Tabbed by: tom murphy

Email:

FOR ACOUSTIC

my first tab ever so hope it works out

Tuning: normal


first part: 

(basic notes, add some fill picking)
 
    Cm                       F                       Gm
e|--------3------------3----|----3-----------------|-------------------------|
B|----------4------------4--|------4--------4------|-----3--------3---3---3--|
G|-----0------0-----0------0|--2-----2----0------0-|-------3-----3------3----|
D|-(2)----------------------|3---------------------|--0------0---------------|
A|--3------------1----------|-----------0-----1----|-----------0----1--------|
E|--------------------------|----------------------|3------------------------|
     please could you.....   stop the..             tryin to get...

  Gm/E            Gm                   Gm/E           -x2| before next part  
e|-------------------------------------------------------|-slow down and----|
B|---3----------------3-------3---3--3---3-----------3/4-|-strum last notes-|
G|-3---3-2--0--0--3----3-----3-----3---3---3-2-0--0------|--where Gm/E is---|
D|------------------0----0-------------------------------|-dont do slide bit|
A|-1-----0-----------------0---1-------1-----0-----------|------------------|
E|----------3--3--3----------------------------3--3------|------------------|

Second part:

   Gm     (strum)      F                E        x2      
e|--0------------------0----------------0------------------------------------|
B|--3------------------1----------------0------------(a)-3/4-----------------|
G|--3------------------2----------------1------------------------------------|
D|--0------------------3----------------2------------------------------------|
A|--2------------------3----------------2------------(b)-5--4--3-------------|
E|--3------------------1----------------0------------------------------------|
   whats that.....

Third part:

(muted with palm)

    A (hold chord barred with first finger)
e|--0--|----------------------------------|---------------------------------|
B|--2--|----------------------------------|---------------------------------|
G|--2--|----------------------------------|---------------------------------|
D|--2--|----------------------------------|---------------------------------|
A|--0--|----0--0-0-3p0------0--3--5-------|--0--0-0-3p0---5p3p0-5p3p0--2--3-|
E|-----|---------------4--4---------------|-------------4-------------------|
        <      repeat this bar           >      
         ambition makes you.......  

Fourth part: (triplets)
                                    <       repeat this bar      >
        C              G#       Bb7   C7            G#7       Bb7   C7
e|------3--------------4---------6--|-8--------------4---------6--|-8-------|
B|------5--------------4---------6--|-8--------------4---------6--|-8-------|
G|------5--------------5---------7--|-9--------------5---------7--|-9-------|
D|------5--------------6---------6--|-8--------------4---------6--|-8-------|
A|------3--------------6---------8--|-10-------------6---------8--|-10------|
E|------x--------------4---------6--|-8--------------4---------6--|-8-------|
 
time:   1    2    3    1    2    3    1    2    3    1    2    3    1    
strum:  d    d u  d u  d    d u  d    d    d u  d u  d    d u  d    d
                                     


end of last one: (back into third part)  
      
    C7 B7 Bb7 A7             
e|--8---7--6--5-----|   
B|--8---7--6--5-----|
G|--9---8--7--6-----|
D|--8---7--6--5-----|
A|--10--9--8--7-----|
E|--8---7--6--5-----|

 
end of very last one: (into fifth part)

    C7 B7 Bb7 A7 F
e|--8---7--6--5--1--|
B|--8---7--6--5--1--|
G|--9---8--7--6--2--|
D|--8---7--6--5--3--|
A|--10--9--8--7--3--|
E|--8---7--6--5--1--|
 


Fifth part:

    C    C/B    Bb    Am          Dm    Am   Dm  Dm/C  Dm/Bb  Dm/A  Dm/G
e|--0-----0-----0-----0-----------1-----0(3)--1----1-----0-----1-----1----|
B|--1-----1-----3-----1-----------3-----1-----3----3-----3-----3-----3----|
G|--0-----0-----0-----2-----------2-----2-----2----2-----2-----2-----2----|
D|--2-----0-----0-----2-----------0-----2-----0----x-----x-----x-----x----|
A|--3-----2-----1-----0---0-2-4---x-----0-----x----3-----1-----0-----x----|
E|--x-----x-----x-----x-----------------x----------------------------3----|

    F     E             A
e|--1-----0-------------0------|
B|--1-----0-------------3------|
G|--2-----1-------------3------|
D|--3-----2-------------3------|
A|--3-----2-------------0------|
E|--1-----0-------------x------|
               (no 'A' on last one stay on 'E')


Fifth part tab: (can be added to above)

    C    C/B    Bb    Am          Dm    Am   Dm  Dm/C  Dm/Bb  Dm/A  Dm/G
e|--0-----0-----------------------1-----3-----1-------------0--1--------0-|
B|-----------------3--1--1--3--5---------------------------3-----1-----3--|
G|------------------------------------------------------------------------|
D|--------------------------------0-----------0---------------------------|
A|--3-----2-----1-----0--0--2--4--------0---------3------1-----0----------|
E|-------------------------------------------------------------------3----|

    F     E             A
e|--1--------0--1--0-------1--0--1--|
B|-----1--0-------------------------|
G|----------------------2-----------|
D|----------------------------------|
A|----------------------0-----------|
E|--1-----0-------------------------|

hope this helps. listen to song for layout of these parts


| /  slide up
| \  slide down
| h  hammer-on
| p  pull-off
| ~  vibrato
| +  harmonic
| x  Mute note
less
plus
Add to Songbook Print Version How to play lesson Submit videolesson
Click the best TAGS for this song:
None of them
Contributor: Yo-Ydali Correct

If you can not find the chords or tabs you want, look at our partner E-chords. If you are a premium member, you have total access to our video lessons.

If you find a wrong Bad To Me from Radiohead, click the correct button above.

login/signup
my songbooks
my recent views
my submits