Radiohead

There there bass

Radiohead

Album:Hail to the Thief

Year:2003

tools Ultimate Tabs

Start AutoScroll Font Size Down Font Size Up

Find us on Facebook

chords tabs
bass
ukulele keyboards
drums
flute
harmonica
guitar pro video
Ultimate-Tabs

There there

Title: There There
Artist: Radiohead
Album: Hail To The Thief
Tabbed by: sonny ([email protected])
Tuning: Standard (E A D G)

Updated outro and bridge and Figure 2.UPDATED after i saw it on mtv 2. ARLIGHT I GOT A
VIDEO... THis time i think i got it im not sure oh well..... Also i updated this after 3
hopefully this will move it up to 5 i know people on the radiohead message boards 
the effort, i hope it is worthy of your approval also

Figure 1
G|-------------------------------------------------------------------||
D|-------------------------------------------------------------------||
A|-14----12--14-----12--14---12--14---------12-----------------------||
E|----------------------------------12--14---------------------------||

Figure 2
G|-------------------------------------|
D|------12-14-12-12------12------------|
A|12h14------------12h14----14--12--14-|
E|-------------------------------------|

Chorus:
G|-------------------------------------------------------------------||
D|-------------------------------------------------------------------||
A|12-12-12-12-12-12-12-12-----------------------------Figure 2-------||
E|------------------------14-14-14-14-14-14-14-14--------------------||

Bridge(Repeat till outro)
G|----------------|----------------|----------------|----------------||
D|----------------|----------------|----------------|----------------||
A|----------------|----------------|----------------|----------------||
E|7----7----5---7~|~---7-----5---7~|~---7----5----7-|---7----7--8---9||

G|----------------|----------------|----------------|----------------||
D|----------------|----------------|----------------|----------------||
A|----------------|----------------|----------------|----------------||
E|10---10---8--10~|~---10---8---5--|5----5----3---5~|~---5---3---5---||

G|----------------|----------------|----------------|----------------||
D|----------------|----------------|----------------|----------------||
A|-7---7--5-7-5-7~|~-7---5--7--5--7|---7---7-5------|----------------||
E|----------------|----------------|-----------5-6--|-7---7----5---7~||

G|----------------|----------------|----------------|----------------||
D|----------------|----------------|----------------|----------------||
A|----------------|----------------|----------------|----------------||
E|~---7---5---7---|---7-----5----7~|~---7----7--8--9|-10--10---8--10~||

G|----------------|----------------|----------------|----------------||

D|----------------|----------------|----------------|----------------||
A|----------------|----------------|----------------|7---7---5-7-5-7~||
E|~---10---8---5--|--5---5---3---5-|--5-----3---5---|----------------||

G|----------------|----------------||
D|----------------|----------------||
A|~---7---5-7-5-7~|~----7---7-5----||
E|----------------|------------5-6-||

Outro (Verse an octive lower)
G|-------------------------------------------------------------------||
D|-------------------------------------------------------------------||
A|-------------------------------------------------------------------||
E|-7---5---7------5---7-----5---7--------0--2------------------------||

Taken from The BassMasta -- http://www.bassmasta.net
less
plus
Add to Songbook Print Version How to play lesson Submit videolesson
Click the best TAGS for this song:
None of them
Contributor: SergJKof Correct

If you can not find the chords or tabs you want, look at our partner E-chords. If you are a premium member, you have total access to our video lessons.

If you find a wrong Bad To Me from Radiohead, click the correct button above.

login/signup
my songbooks
my recent views
my submits