tools Ultimate Tabs

Start AutoScroll Font Size Down Font Size Up

Find us on Facebook

chords
tabs
bass
ukulele
keyboards
drums
flute
harmonica
guitar pro video
Ultimate-Tabs

Fistful Of Steel

Just play in order and repeat as necessary when stated.

G|----------------|
D|----------------|
A|----------------|
E|-0-2-2--0-2-2---|

G|----------------|
D|----------------|
A|----------------| repeat as necessary
E|-0h2-0h2--14\---|

G|----------------|
D|----------------|
A|----------------|
E|-0-2-2--0-2-2---|

G|--------------------|
D|--------------------|
A|------------0-2-3---| repeat as necessary
E|-2-2--/14~----------|

G|----------------------------|
D|--------------4-2-----------|
A|------------------4--4-3-2--|
E|-2-2--/14~--2---------------|

G|----------------|
D|----------------|
A|----------------| repeat as necessary
E|-0h2-0h2--14\---|

G|----------------|
D|----------------|
A|----------------|
E|-0-2-2--0-2-2---|

G|--------------------|
D|--------------------|
A|------------0-2-3---| repeat as necessary
E|-2-2--/14~----------|

G|----------------------------|
D|--------------4-2-----------|
A|------------------4--4-3-2--|
E|-2-2--/14~--2---------------|


G|----------------|
D|----------------|
A|----------------| repeat as necessary
E|-0h2-0h2--14\---|

G|----------------|
D|----------------|
A|----------------|
E|-0-2-2--0-2-2---|

G|-------------------------------|
D|-------------------------------|
A|---------------0--0-0-2-2-3-3--| repeat as necessary
E|-2-2-0-2-0-2-0-----------------|

G|----------------------------|
D|-------------4-2------------|
A|-----------------4--4-3-2---|
E|-2-2-0-2-2-0----------------|


G|-------------------------------|
D|-------------------------------|
A|---------------0--0-0-2-2-3-3--| repeat as necessary
E|-2-2-0-2-0-2-0-----------------|

G|----------------------------|
D|-------------4-2------------|
A|-----------------4--4-3-2---|
E|-2-2-0-2-2-0----------------|

G|--------------------------|
D|--------------------------|
A|----------9-8-7---9-8-7---| repeat as necessary
E|-0-2-5--0-------0---------|

G|---------|
D|---------|
A|---------|
E|-0-x-5---|

G|--------------------------|
D|--------------------------|
A|----------9-8-7---9-8-7---| repeat as necessary
E|-0-2-5--0-------0---------|

G|------------|
D|------------|
A|------------|
E|-0-x-----5--|
less
plus
Add to Songbook Print Version How to play lesson Submit videolesson
Click the best TAGS for this song:
None of them
Contributor: fresrbok Correct

If you can not find the chords or tabs you want, look at our partner E-chords. If you are a premium member, you have total access to our video lessons.

If you find a wrong Bad To Me from Rage Against The Machine, click the correct button above.

login/signup
my songbooks
my recent views
my submits