Raimundos

Baile Funky tab

Raimundos

Album:MTV Ao Vivo - Volume 2

Year:2000

tools Ultimate Tabs

Start AutoScroll Font Size Down Font Size Up

Find us on Facebook

chords
tabs
bass
ukulele
keyboards
drums
flute
harmonica
guitar pro
video
Ultimate-Tabs

Baile Funky

 
Como vrias msicas dos Raimundos a afimao da 6 corda  em R (D) 
 
INTRO: 
|---------------------------------------------------------------------| 
|---------------------------------------------------------------------| 
|---------------------------------------------------------------------| 
|---------------------------------------------------------------------| 
|-0-0-13-0-12--10-7-12-10-7-3-5--5-5-7-0-0-13-0-12--10-7-12-10-7-3-5--| 
|-0-0-13-0-12--10-7-12-10-7-3-5--5-5-7-0-0-13-0-12--10-7-12-10-7-3-5--| 
 
Riff 1 
|-----------------------------------| 
|-----------------------------------| 
|-----------------------------------|   x7 
|-----------------------------------| 
|-0-0-0---0-0-0---0-0-0---3-0-5h2---| 
|-0-0-0---0-0-0---0-0-0---3-0-5h2---| 
 
Riff 1(Continuao) 
|-----------------------------------------| 
|-----------------------------------------| 
|-----------------------------------------| 
|-----------------------------------------| 
|-0-0-0---0-0-0---0-0-0---7>8-7---5>7-5---| 
|-0-0-0---0-0-0---0-0-0---------7---------| 
 
Riff 2 
|--------------| 
|--------------| 
|--------------|    x8 
|--------------| 
|-0-0-3-5-7-5--| 
|-0-0-3-5-7-5--| 
 
(F G G G) 
Essa mulher t me olhando 
E me dizendo que me quer no meio 
Funk baile funky 
 
Riff 2:  x4 
 
(F G G G) 
Moa bonita do jeito que a nga grita 
 na lapada 
Ns vamos tirando o sangue 
 
Riff 2:  x4 
 
Riff 1 
Sul, essa mulher t me dizendo 
Que a vontade d no sul 
A bssola t me dizendo que ela t no sul 
 
Riff 2:  x4 
 
(F G G G) 
Voc com a arma do lado 
Tome cuidado na briga que esse rei na barriga 
T ficando velho 
 
Riff 2:  x4 
 
(F G G G) 
Alto l nego doido 
T com medo pra que veio 
T com perna bamba de quem vai morrer 
 
Riff 2:  x4 
 
Riff 1 
Eu t cansado da TV e do bombardeio da moda 
Manda comprar tudo que eu ver 
Tudo que ela tem pra vender 
Eu t cansado eu sou um calo nos dedo  
Da mo na roda 
Que no para de crescer 
A lei no sabe a diferena o que  ser e ficar louco 
O remdio  to forte que mata cada dia um pouco 
Se todo excesso fosse visto como fraqueza 
E no como insulto 
J me tirava do sufoco 
 
A porta t sempre aberta pro povo 
 
|------------------------------------------------------------------------------------------------------------------------------------| 
|------------------------------------------------------------------------------------------------------------------------------------| 
|-------9/10-101010---7-4--7/9--7--4-----------11/12--121212--9-4-7/9-999--------9/10--101010--7-4-7/9--7----------------------------| 
|-------9/10-101010---7-4--7/9--7--4-----------11/12--121212--9-4-7/9-999--------9/10--101010--7-4-7/9--7--9-------------------------| 
|--0-0--7/8---8-8-8---5-2--5/7--5--2--3---0-0---9/10--101010--7-2-5/7-777-3--0-0-7/8----8-8-8--5-2-5/7--5--9--3----------------------| 
|--0-0--------------------------------3---0-0-----------------------------3--0-0---------------------------9--3----------------------| 
 
Casca do cerrado chegaram os mortos de fome 
Sujeira de outra parte que vem pra sujar seu nome 
Eu te falei que o ladro que rouba mesmo 
 bem vestido e eu vi de monte 
 
|--------------------| 
|--------------------| 
|--------------------| 
|--------------------| 
|-0-0--3-3--7-7--8-8-| 
|-0-0--3-3--7-7--8-8-| 
 
|------------------------------------------------------------------------------------------------------------------------------------| 
|------------------------------------------------------------------------------------------------------------------------------------| 
|-------9/10-101010---7-4--7/9--7--4-----------11/12--121212--9-4-7/9-999--------9/10--101010--7-4-7/9--7----------------------------| 
|-------9/10-101010---7-4--7/9--7--4-----------11/12--121212--9-4-7/9-999--------9/10--101010--7-4-7/9--7--9-------------------------| 
|--0-0--7/8---8-8-8---5-2--5/7--5--2--3---0-0---9/10--101010--7-2-5/7-777-3--0-0-7/8----8-8-8--5-2-5/7--5--9--3----------------------| 
|--0-0--------------------------------3---0-0-----------------------------3--0-0---------------------------9--3----------------------| 
 
Essa zoada no telhado  o vento que a vida leva 
 o pensamento antiquado, te apaga queimando a erva 
Enraizado fica o dono do p que finca na terra 
E faz a ponte 
 
|--------------------| 
|--------------------| 
|--------------------| 
|--------------------| 
|-0-0--3-3--7-7--8-8-| 
|-0-0--3-3--7-7--8-8-| 
 
Povo de Z ofensa 
 
|----------------------------------------| 
|----------------------------------------| 
|----------------------------------------| 
|----------------------------------------| 
|-7-3-5-0-0---0-0-0---7-3-5-0-0---0-0-0--| 
|-7-3-5-0-0---0-0-0---7-3-5-0-0---0-0-0--| 
 
Riff 2:  x4 
 
(F G G G) 
 na igreja que o povo esvazia as bolsa 
Tem quatro santos, trs queimando o kunk 
 
Riff 2:  x4 
 
Riff 1 
Decidindo o destino dos outros como se fosse Deus 
Atrs da mesa o aougueiro comanda 
E a intolerncia me manda de novo pro banco dos rus 
Armando com propaganda. 
Naquela teia de aranha tem cobra, cachorro e rato 
E o remdio pra matar  verde e feito de mato 
Chegou a hora de mudar, de por sangue novo 
E deixar essa porta sempre aberta pro povo 
 
|------------------------------------------------------------------------------------------------------------------------------------| 
|------------------------------------------------------------------------------------------------------------------------------------| 
|-------9/10-101010---7-4--7/9--7--4-----------11/12--121212--9-4-7/9-999--------9/10--101010--7-4-7/9--7----------------------------| 
|-------9/10-101010---7-4--7/9--7--4-----------11/12--121212--9-4-7/9-999--------9/10--101010--7-4-7/9--7--9-------------------------| 
|--0-0--7/8---8-8-8---5-2--5/7--5--2--3---0-0---9/10--101010--7-2-5/7-777-3--0-0-7/8----8-8-8--5-2-5/7--5--9--3----------------------| 
|--0-0--------------------------------3---0-0-----------------------------3--0-0---------------------------9--3----------------------| 
 
Casca do cerrado chegaram os mortos de fome 
Sujeira de outra parte que vem pra sujar seu nome 
Eu te falei que o ladro que rouba mesmo 
 bem vestido e eu vi de monte 
 
|--------------------| 
|--------------------| 
|--------------------| 
|--------------------| 
|-0-0--3-3--7-7--8-8-| 
|-0-0--3-3--7-7--8-8-| 
 
|------------------------------------------------------------------------------------------------------------------------------------| 
|------------------------------------------------------------------------------------------------------------------------------------| 
|-------9/10-101010---7-4--7/9--7--4-----------11/12--121212--9-4-7/9-999--------9/10--101010--7-4-7/9--7----------------------------| 
|-------9/10-101010---7-4--7/9--7--4-----------11/12--121212--9-4-7/9-999--------9/10--101010--7-4-7/9--7--9-------------------------| 
|--0-0--7/8---8-8-8---5-2--5/7--5--2--3---0-0---9/10--101010--7-2-5/7-777-3--0-0-7/8----8-8-8--5-2-5/7--5--9--3----------------------| 
|--0-0--------------------------------3---0-0-----------------------------3--0-0---------------------------9--3----------------------| 
 
Essa zoada no telhado  o vento que a vida leva 
 o pensamento antiquado, te apaga queimando a erva 
Enraizado fica o dono do p que finca na terra 
E faz a ponte 
 
|--------------------| 
|--------------------| 
|--------------------| 
|--------------------| 
|-0-0--3-3--7-7--8-8-| 
|-0-0--3-3--7-7--8-8-| 
 
|------------------------------------------------------------------------------------------------------------------------------------| 
|------------------------------------------------------------------------------------------------------------------------------------| 
|-------9/10-101010---7-4--7/9--7--4-----------11/12--121212--9-4-7/9-999--------9/10--101010--7-4-7/9--7----------------------------| 
|-------9/10-101010---7-4--7/9--7--4-----------11/12--121212--9-4-7/9-999--------9/10--101010--7-4-7/9--7--9-------------------------| 
|--0-0--7/8---8-8-8---5-2--5/7--5--2--3---0-0---9/10--101010--7-2-5/7-777-3--0-0-7/8----8-8-8--5-2-5/7--5--9--3----------------------| 
|--0-0--------------------------------3---0-0-----------------------------3--0-0---------------------------9--3----------------------| 
 
A justia no me olha porque  cega 
Mas o seu dinheiro na carteira ela enxerga 
A lei do co no  nada mais que a prpria lei do homem 
 
|--------------------| 
|--------------------| 
|--------------------| 
|--------------------| 
|-0-0--3-3--7-7--8-8-| 
|-0-0--3-3--7-7--8-8-| 
 
|------------------------------------------------------------------------------------------------------------------------------------| 
|------------------------------------------------------------------------------------------------------------------------------------| 
|-------9/10-101010---7-4--7/9--7--4-----------11/12--121212--9-4-7/9-999--------9/10--101010--7-4-7/9--7----------------------------| 
|-------9/10-101010---7-4--7/9--7--4-----------11/12--121212--9-4-7/9-999--------9/10--101010--7-4-7/9--7--9-------------------------| 
|--0-0--7/8---8-8-8---5-2--5/7--5--2--3---0-0---9/10--101010--7-2-5/7-777-3--0-0-7/8----8-8-8--5-2-5/7--5--9--3----------------------| 
|--0-0--------------------------------3---0-0-----------------------------3--0-0---------------------------9--3----------------------| 
 
E quanto mais eu olhava aumentava a crena 
De que o guarda do seu lado no  nada que voc pensa 
Pro povo do cerrado 
Do alto do Colorado 
Tem outro nome 
 
|--------------------|			  
|--------------------| 
|--------------------| 
|--------------------| 
|-0-0--3-3--7-7--8-8-| 
|-0-0--3-3--7-7--8-8-| 
 
Povo de Z ofensa 
 
|----------------------------------------| 
|----------------------------------------| 
|----------------------------------------| 
|----------------------------------------| 
|-7-3-5-0-0---0-0-0---7-3-5-0-0---0-0-0--| 
|-7-3-5-0-0---0-0-0---7-3-5-0-0---0-0-0--| 
 
pablo farias muniain 
 
 
_______________________________________________________ 
Contribuio: Pablo Farias Muniain([email protected]) 
 
less
plus
Add to Songbook Print Version How to play lesson Submit videolesson
Click the best TAGS for this song:
None of them
Contributor: moibTHE1 Correct

If you can not find the chords or tabs you want, look at our partner E-chords. If you are a premium member, you have total access to our video lessons.

If you find a wrong Bad To Me from Raimundos, click the correct button above.

login/signup
my songbooks
my recent views
my submits