Rainbow

Lady Of The Lake tab

Rainbow

Album:Long Live Rock 'n' Roll

Year:1978

tools Ultimate Tabs

Start AutoScroll Font Size Down Font Size Up

Find us on Facebook

chords
tabs
bass
ukulele
keyboards
drums
flute
harmonica
guitar pro video
Ultimate-Tabs

Lady Of The Lake

------------------------------------------------------------------------------ 
------------------------------------------------------------------------------ 
--------------------------------------------------------12v------------------- 
----------------------------------------------4-3-2--------------------------- 
----------------------------------------------2-1-0--------------------------- 
-0--0-0-0--0----0--0-0-0--3----0--0-0-0-----0--------------------------------- 
   main riff & intro                                                           
 
------------------------------------------------------------------------------ 
------------------------------------------------------------------------------ 
-------------------------------7------9-------------5------7------------------ 
------------------------5----7------9--------2----5------7------5------------- 
--2--3--5--3--2--0----5----5------7--------2----3------5---------------------- 
--------------------3--------------------0--------------------3----0---------- 
                     I know, she...                                            
 
------------------------------------------------------------------------------ 
------------------------------------------------------------------------------ 
------5------7------5-----2--5-5-5-5-5-5-5------------------------------------ 
----5------7------5-----2----5-5-5-5-5-5-5------------------------------------ 
--3------5------3-----0------3-3-3-3-3-3-7------------------------------------ 
------------------------------------------------------------------------------ 
   When she comes to me...                                                     
 
 
There's a magical sound slidin' over the ground 
Makin' it shiver and shake 
And a permanent cry fallin' out of the sky 
Slippery and sly like a snake 
 
With a delicate move kind of shifty and smooth 
A shadow has covered the light 
Then a beam in the shade from a silvery blade 
Has shattered the edge of the night 
 
I know she waits below 
Only to rise on command 
When she comes for me 
She's got my life in her hands 
 
When a movement behind hit the side of my mind 
I trembled and shook it away 
Then another assault and I started to faulter 
Fibres of steel turned to clay 
 
With a bubbly turn now the water should churn 
And push it way from the core 
And a lady in white will bring sun to the night 
Brighter than ever before 
 
I know she waits below 
Only to rise on command 
When she comes for me 
She's got my life in her hands 
Lady of the lake 
 
There's a magical sound slidin' over the ground 
Makin' it shiver and shake 
And a permanent cry fallin' out of the sky 
Slippery and sly like a snake 
 
With a delicate move kind of shifty and smooth 
A shadow has covered the light 
Then a beam in the shade from a slivery blade 
Has shattered the edge of the night 
 
Straight down I'm swirling around 
Blinded and bruised by the strain 
There must be some way to see 
Diamonds out of the rain 
 
I know she waits below 
Only to rise on command 
When she comes for me 
She's got my life in her hands 
Lady of the lake 
 
 
 
less
plus
Add to Songbook Print Version How to play lesson Submit videolesson
Click the best TAGS for this song:
None of them
Contributor: pfelAcro Correct

If you can not find the chords or tabs you want, look at our partner E-chords. If you are a premium member, you have total access to our video lessons.

If you find a wrong Bad To Me from Rainbow, click the correct button above.

login/signup
my songbooks
my recent views
my submits