Rammstein

Waidmanns Heil tab

Rammstein

Album:Liebe Ist Für Alle Da

Year:2009

tools Ultimate Tabs

Start AutoScroll Font Size Down Font Size Up

Find us on Facebook

chords
tabs
bass
ukulele
keyboards
drums
flute
harmonica
guitar pro video
Ultimate-Tabs

Waidmanns Heil

(afinação 1 tom abaixo) 

(riff principal) 
E |----------------------------------------|--------------------------------------| 
B |----------------------------------------|--------------------------------------| 
G |----------------------------------------|--------------------------------------| 
D |-0---------1-0-------0----------1-0-3-5-|-0--------1-0--------0--------1-0-5-3-| 
A |-0---------1-0-------0----------1-0-3-5-|-0--------1-0--------0--------1-0-5-3-| 
D |-0--000000-1-0--0000-0--000000--1-0-3-5-|-0-000000-1-0-0000---0-000000-1-0-5-3-| 

(verso) 
E |---------------------------------------------------------------------------| 
B |---------------------------------------------------------------------------| 
G |---------------------------------------------------------------------------| 
D |---------------------------------------------------------------------------| 
A |---------------------------------------------------------------------------| 
D |-0-000000-1-0-0000---------------------------------------------------------| 

(riff principal) 
(verso) 

E |---------------------------------------------------------------------------| 
B |---------------------------------------------------------------------------| 
G |---------------------------------------------------------------------------| 
D |---------------------------------------------------------------------------| 
A |--222-22-222-22-222-22-222-222---------------------------------------------| 
D |--222-22-222-22-222-22-222-222---------------------------------------------| 

(riff principal) 

E |---------------------------------------------------------------------------| 
B |---------------------------------------------------------------------------| 
G |---------------------------------------------------------------------------| 
D |-1-0-5-3-------------------------------------------------------------------| 
A |-1-0-5-3-------------------------------------------------------------------| 
D |-1-0-5-3-12~---------------------------------------------------------------|  
less
plus
Add to Songbook Print Version How to play lesson Submit videolesson
Click the best TAGS for this song:
None of them
Contributor: MounJam0 Correct

If you can not find the chords or tabs you want, look at our partner E-chords. If you are a premium member, you have total access to our video lessons.

If you find a wrong Bad To Me from Rammstein, click the correct button above.

login/signup
my songbooks
my recent views
my submits