Ramones

Blitzkreig Bop bass

Ramones

tools Ultimate Tabs

Start AutoScroll Font Size Down Font Size Up

Find us on Facebook

Ultimate-Tabs

Blitzkreig Bop

------------------------------------------------------------------------------
-------------------------------Blitzkrieg_Bop---------------------------------
------------------------------------------------------------------------------

Tuning: Standard

Intro

Play This twice...

 |============3x=============|
g|---------------------------|--------------------------------|
d|---------------------------|--------------------------------|
a|----------------5---7--7-7-|--------5-5-5-5-----------------|
E|5-5-5-5-5-5-5-5------------|5-5-5-5---------5-5-5-5-5-5-5-5-|

Pre-Verse

g|--------------------------------|
d|--------------------------------|
a|--------------------------------|
E|5-5-5-5-5-5-5-5-5-5-5-5-5-5-5-5-|

Verse 1

play this twice....

 |============3x=============|
g|---------------------------|--------------------------------|
d|---------------------------|--------------------------------|
a|----------------5---7--7-7-|--------5-5-5-5-----------------|
E|5-5-5-5-5-5-5-5------------|5-5-5-5---------5-5-5-5-5-5-5-5-|

Chorus 1

g|-------------------------------------------------------------|
d|-------------------------------------------------------------|
a|5-5-5-5-5-5-5-5-5-5-5-5-5-5-5-5-5-5-----------------5--------|
E|------------------------------------5-5-5-5-5-5-5-5-----5--5-|

g|-------------------------------------------------------------|
d|-------------------------------------------------------------|
a|5-5-5-5-5-5-5-5-5-5-5-5-5-5-5-5-5-5-----------------5---7--7-|
E|------------------------------------5-5-5-5-5-5-5-5----------|

Verse 2

play this twice....

 |============3x=============|
g|---------------------------|--------------------------------|
d|---------------------------|--------------------------------|
a|----------------5---7--7-7-|--------5-5-5-5-----------------|
E|5-5-5-5-5-5-5-5------------|5-5-5-5---------5-5-5-5-5-5-5-5-|

Chorus 2

g|-------------------------------------------------------------|
d|-------------------------------------------------------------|
a|5-5-5-5-5-5-5-5-5-5-5-5-5-5-5-5-5-5-----------------5--------|
E|------------------------------------5-5-5-5-5-5-5-5-----5--5-|

g|-------------------------------------------------------------|
d|-------------------------------------------------------------|
a|5-5-5-5-5-5-5-5-5-5-5-5-5-5-5-5-5-5-----------------5---7--7-|
E|------------------------------------5-5-5-5-5-5-5-5----------|

Verse 3

play this twice....

 |============3x=============|
g|---------------------------|--------------------------------|
d|---------------------------|--------------------------------|
a|----------------5---7--7-7-|--------5-5-5-5-----------------|
E|5-5-5-5-5-5-5-5------------|5-5-5-5---------5-5-5-5-5-5-5-5-|


Outro

g|--------------------------------|
d|--------------------------------|
a|----------------5-5-5-5-5-5-5-5-|
E|5-5-5-5-5-5-5-5-----------------|

less
plus
Add to Songbook Print Version How to play lesson Submit videolesson
Click the best TAGS for this song:
None of them
Contributor: bris2484 Correct

If you can not find the chords or tabs you want, look at our partner E-chords. If you are a premium member, you have total access to our video lessons.

If you find a wrong Bad To Me from Ramones, click the correct button above.

login/signup
my songbooks
my recent views
my submits