S Rascals

Stockings To Suit tab

Rascals

tools Ultimate Tabs

Start AutoScroll Font Size Down Font Size Up

Find us on Facebook

chords
tabs
bass
ukulele
keyboards
drums
flute
harmonica
guitar pro
video
Ultimate-Tabs

Stockings To Suit

-------------------------------------------------------------------------------
               Stockings To Suit  The Rascals
-------------------------------------------------------------------------------
Tabbed by: Ben Pattyson 
Email: [email protected]

Note: some of this song is in 6/8 time signature e.g.(1:11)

Intro
   (tremolo picking)
e|-8888888888888888-5555555555555555-12121212121212121212121212121212--------|
B|---------------------------------------------------------------------------|
G|---------------------------------------------------------------------------| x2
D|---------------------------------------------------------------------------|    
A|---------------------------------------------------------------------------|   
E|---------------------------------------------------------------------------|   

e|-8888888888888888-5555555555555555-|
B|-----------------------------------|
G|-----------------------------------|
D|-----------------------------------|    
A|-----------------------------------|   
E|-----------------------------------|   

(0:19)

e|-----------------------------------|
B|-----------------------------------|
G|-----------------------------------| x2 (bass)
D|-----------------------------------|
A|---7b8r----7b8r----7b8r----7b8r----|
E|-0-------0-------0-------0---------|


e|-------------------------------------------------------------------------------------
B|-------------------------------------------------------------------------------------
G|-9--9b10r---9-9b10r---9--9b10r---99b10r--9s15-15-15-15-15-15-15-15-14-14-14-14s18--
D|-------------------------------------------------------------------------------------
A|-------------------------------------------------------------------------------------
E|-------------------------------------------------------------------------------------

e|---------------|
B|---------------|
G|-5--7-8--10---| x2
D|---------------|
A|---------------|
E|---------------|


(1:11)

e|-7-7-7-7-7-7--8-8-8-8-8-8--5-5-5-5-5-5---|
B|-8-8-8-8-8-8--8-8-8-8-8-8--5-5-5-5-5-5---|
G|-9-9-9-9-9-9--9-9-9-9-9-9--5-5-5-5-5-5---| x8
D|-9-9-9-9-9-9--101010101010-7-7-7-7-7-7---|
A|-7-7-7-7-7-7--101010101010-7-7-7-7-7-7---|
E|--------------8-8-8-8-8-8--5-5-5-5-5-5---|

(1:48)

e|-2-2-2-2-2-2--4-4-4-4-4-4--4-4-4-4-4-4--5-5-5-5-5-5--------------------------|
B|-2-2-2-2-2-2--4-4-4-4-4-4--5-5-5-5-5-5--5-5-5-5-5-5--------------------------|
G|-2-2-2-2-2-2--4-4-4-4-4-4--6-6-6-6-6-6--6-6-6-6-6-6--7-7-7-7-7-7-7-7-7-7-7-7-|
D|-4-4-4-4-4-4--6-6-6-6-6-6--6-6-6-6-6-6--7-7-7-7-7-7--7-7-7-7-7-7-7-7-7-7-7-7-|
A|-4-4-4-4-4-4--6-6-6-6-6-6--4-4-4-4-4-4--7-7-7-7-7-7--5-5-5-5-5-5-5-5-5-5-5-5-|
E|-2-2-2-2-2-2--4-4-4-4-4-4---------------5-5-5-5-5-5--------------------------|

e|-------------------------------------------------------------------|
B|-------------------------------------------------------------------|
G|-------------------------------------------------------------------| x4
D|-------------------------------------------------------------------|
A|-7--------7---------7----------7-----------------------------------|
E|----8--5------8--5------8--5------8--5---4-4-4-5-5-5-8-8-8-7-7-7---|
        
         E5                                C5       A5
e|------|-12121212121212121212121212121212-88888888-55555555---|
B|------|------------------------------------------------------|
G|------|------------------------------------------------------| 
D|------|------------------------------------------------------|
A|-7v---|------------------------------------------------------|
E|------|------------------------------------------------------|

Repeat E5/C5/A5 chord progression until end bit.


End on E5

I think thats about it. Cheers.

| b  bend
| r  release
| s  slide
| p  pull-off
| v  vibrato
| x  Mute note
===============================================================================

less
plus
Add to Songbook Print Version How to play lesson Submit videolesson
Click the best TAGS for this song:
None of them
Contributor: Andedas_ Correct

If you can not find the chords or tabs you want, look at our partner E-chords. If you are a premium member, you have total access to our video lessons.

If you find a wrong Bad To Me from Rascals, click the correct button above.

login/signup
my songbooks
my recent views
my submits