Ray Charles

What'd I Say tab

Ray Charles

Album:20 Golden Hits

Year:2004

tools Ultimate Tabs

Start AutoScroll Font Size Down Font Size Up

Find us on Facebook

chords
tabs
bass
ukulele keyboards
drums
flute
harmonica
guitar pro video
Ultimate-Tabs

What'd I Say

Guitar Intro 
 
*-Let Ring 
 
               Play 4x 
E--------------------------------------------------   
B-------------------------------------------------- 
G-------------------------------------------------- 
D-----------------0---2---------------------------- 
A----------2---------------------------------------- 
E---0*---------0------------------------------------ 
 
                Play 2x 
E---------------------------------------------------- 
B---------------------------------------------------- 
G------------------0---2----------------------------- 
D----------2----------------------------------------- 
A---0*-------0-------------------------------------- 
E----------------------------------------------------- 
 
                 Play 2x 
E--------------------------------------------------   
B-------------------------------------------------- 
G-------------------------------------------------- 
D-----------------0---2---------------------------- 
A----------2---------------------------------------- 
E---0*---------0------------------------------------ 
 
 
E---------------------------------------------------- 
B---------------------------------------------------- 
G------------------2---4---------------------------- 
D--------2----4-------------------------------------- 
A----0*---------------------------------------------- 
E----------------------------------------------------- 
 
 
E---------------------------------------------------- 
B---------------------------------------------------- 
G------------------0---2----------------------------- 
D----------2----------------------------------------- 
A---0*-------0-------------------------------------- 
E----------------------------------------------------- 
 
 
                 Play 2x 
E--------------------------------------------------   
B-------------------------------------------------- 
G-------------------------------------------------- 
D-----------------0---2---------------------------- 
A----------2---------------------------------------- 
E---0*---------0------------------------------------ 
 
Guitar ends and piano starts to finish the song. 
 
 
less
plus
Add to Songbook Print Version How to play lesson Submit videolesson
Click the best TAGS for this song:
None of them
Contributor: multslip Correct

If you can not find the chords or tabs you want, look at our partner E-chords. If you are a premium member, you have total access to our video lessons.

If you find a wrong Bad To Me from Ray Charles, click the correct button above.

login/signup
my songbooks
my recent views
my submits