Red Hot Chili Peppers

Aeroplane (ver. 2) bass

Red Hot Chili Peppers

tools Ultimate Tabs

Start AutoScroll Font Size Down Font Size Up

Find us on Facebook

chords
tabs
bass
ukulele
keyboards
drums
flute
harmonica
guitar pro
video
Ultimate-Tabs

Aeroplane (ver. 2)

 
                                        AEROPLANE 
    				RED HOT CHILI PEPPERS 
     
    Intro                                                                    = 
     
    -|------|------|----------|----|-------------|--17---------|--21------19-= 
    -|------|------|----------|----|------17h19--|------17h19--|------19-----= 
    -19---- 
    -|--15--|--15--|--15--15--|\3--|--15---------|-------------|-------------= 
    -|------|------|----------|----|-------------|-------------|-------------= 
                                                                             = 
           = 
     
                      Trill       Chorus                                     = 
           = 
     
    17--|--17-----------------||----------------------|-----------------|----= 
    ------- 
    ----|------15h17----------||----------------------|-----------------|----= 
    ------- 
    ----|--------------15h17--||---10~~~--0--0--1--1--|--3--------------|----= 
    -0----- 
    ----|---------------------||----------------------|-----0--0--1--1--|--3-= 
    ------- 
                                                                             = 
     
    ------|--------------|---------------------|-----------------|-----------= 
    ------- 
    ------|--------------|---------------------|-----------------|-----------= 
    ------- 
    1--5--|--3--5--6--8--|--10~~~--0--0--1--1--|--3--------------|-----0--1--= 
    5------ 
    ------|--------------|---------------------|-----0--0--1--1--|--3--------= 
    ------- 
                                                                             = 
     
    |-----------------||------------------|-------------------||--||---------= 
    ------- 
    |-----------------||*-----------------|------------------*||--||*--------= 
    ------- 
    |--3--------------||*-----0--1--3--5--|--3--5--6--8--10--*||--||*--------= 
    ------- 
    |-----0--0--1--1--||---3--------------|-------------------||--||---------= 
    ------- 
                                                                             = 
    Verse (varies)                                     Chorus                = 
           = 
     
    -------------------8-----------5---------------||----------------------|-= 
    ------- 
    ----5-----------8-----------------------------*||----------------------|-= 
    ------- 
    ----------------------6--5--3-----3--5--6-----*||---10~~~--0--0--1--1--|-= 
    -3----- 
    -3-----3--5--6-----------------------------1---||----------------------|-= 
    ------- 
                                                                             = 
     
    ------------|--------------|--------------|---------------------|--------= 
    ------- 
    ------------|--------------|--------------|---------------------|--------= 
    ------- 
    ------------|-----0--1--5--|--3--5--6/17--|---------0--0--1--1--|--3-----= 
    ------- 
    0--0--1--1--|--3-----------|--------------|--15~~~--------------|-----0--= 
    0------ 
     
                                                                         = 
    ------|--------------|-----------------|-----------------|---------------= 
    ------- 
    ------|--------------|-----------------|-----------------|---------------= 
    ------- 
    ------|-----0--1--5--|--3--------------|-----0--1--3--5--|--3--5--6--8--1= 
    0------ 
    1--1--|--3-----------|-----0--0--1--1--|--3--------------|---------------= 
    ------- 
                                                                             = 
     
    |--------------------|----------9--10h12--12--12--10h12--12--||----------= 
    ------- 
    |------7--8--10--12--|--10--12-------------------------------||----------= 
    ------- 
    |--10----------------|---------------------------------------||----------= 
    ------- 
    |--------------------|---------------------------------------||----------= 
    ------- 
                                                                             = 
           = 
    Verse (as above)       Chorus                                            = 
           = 
     
    -------------------||----------------------|-----------------|-----------= 
    ------- 
    -------------------||----------------------|-----------------|-----------= 
    ------- 
    -------------------||---10~~~--0--0--1--1--|--3--------------|-----0--1--= 
    5------ 
    -------------------||----------------------|-----0--0--1--1--|--3--------= 
    ------- 
                                                                             = 
     
    |-----------------------------|---------------------|-----------------|--= 
    ------- 
    |---------10------13--12--10--|---------------------|-----------------|--= 
    ------- 
    |--3--10------10--------------|--10~~~--0--0--1--1--|--3--------------|--= 
    ------- 
    |-----------------------------|---------------------|-----0--0--1--1--|--= 
    3------ 
                                                                             = 
                                    Bridge                         Varies    = 
           = 
     
    ---------|-----------------||-------------------------||--||-------------= 
    ------- 
    ---------|-----------------||*-----------------------*||--||*------------= 
    ------- 
    0--1--5--|--3--------------||*---6--6--8--8--10--10--*||--||*---6--6--8--= 
    8------ 
    ---------|-----0--0--1--1--||-------------------------||--||-------------= 
    ------- 
                                                                             = 
     
                                                         Chorus              = 
           = 
     
    --------10------12--12--10-------||--------------||----------------------= 
    |------ 
    ----12------12--------------12--*||--------------||----------------------= 
    |------ 
    10------------------------------*||--10--10--10--||---10~~~--0--0--1--1--= 
    |------ 
    ---------------------------------||--------------||----------------------= 
    |------ 
                                                                             = 
     
    ---------------|--------------|------------|---------------------|-------= 
    ------- 
    ---------------|--------------|------------|---------------------|-------= 
    ------- 
    3--------------|-----0--1--5--|--3--x/x/x--|--10~~~--0--0--1--1--|--3----= 
    ------- 
    ---0--0--1--1--|--3-----------|------------|---------------------|-----0-= 
    -0----- 
                                                                             = 
                                               Solo                          = 
           = 
     
    ------|--------------|-----------------||------0--3--4-----------------|-= 
    ------- 
    ------|--------------|-----------------||---------------5-----5--3-----|-= 
    ------- 
    ------|-----0--1--5--|--3--------------||------------------5--------5--|-= 
    -3----- 
    1--1--|--3-----------|-----0--0--1--1--||---3--------------------------|-= 
    ------- 
     
                                                                         = 
    ------------------------|----------------|-------------------------------= 
    ------- 
    ------------------------|----------------|-------------------------------= 
    ------- 
    1--1--3--1--------------|----------------|--3--3--1--1--(1)--(3)--(1)--(3= 
    )------ 
    ------------3--1--2--3--|--3--3--1--1/x--|-------------------------------= 
    ------- 
                                                                             = 
     
    -----|--------3-----|-----------------------------|--------------3-------= 
    ------- 
    -----|--5--3--------|-----------------------------|--------3--5-----5--3-= 
    ------- 
    (1)--|-----------4--|--3--1--1--3--1--------------|-----5----------------= 
    -5----- 
    -----|--------------|-----------------3--1--2--3--|--3-------------------= 
    ------- 
                                                                             = 
                           Ending                                            = 
           = 
     
    ---------------5--||----------------------------|------------------------= 
    --|---- 
    5--3--------------||*---------------------------|--------0--0--1--1--3--3= 
    --|---- 
    ------5--4--3-----||*---------0--0--1--1--2--2--|--3--3------------------= 
    --|---- 
    ------------------||----3--3--------------------|------------------------= 
    --|---- 
                                                                             = 
                                                                             = 
     
    ------------------------|----------------------------------|-------------= 
    ------- 
    5--5--7--7--8--8--9--9--|--10--10--12--12--13--13--15--15--|--17--17--15-= 
    -15---- 
    ------------------------|----------------------------------|-------------= 
    ------- 
    ------------------------|----------------------------------|-------------= 
    ------- 
                                                                             = 
     
     
    ----------------|----------------------------|--------------------------|= 
    ------- 
    13--13--12--12--|--10--10--9--9--8--8--7--7--|--5--5--3--3--1--1--0--0--|= 
    ------- 
    ----------------|----------------------------|--------------------------|= 
    --3---- 
    ----------------|----------------------------|--------------------------|= 
    ------- 
                                                                             = 
     
     
    ----------------------||-------------------------------------------------= 
    ------- 
    ---------------------*||-------------------------------------------------= 
    ------- 
    3--2--2--1--1--0--0--*||-------------------------------------------------= 
    ------- 
    ----------------------||--3----------------------------------------------= 
    ------- 
                                                                             = 
     
     
    ----------                            ---------- 
    ----5h8--- Hammeron                   ----(8)--- Ghost Note 
    ----------                            ---------- 
    ----5p8--- Pulloff                    ---------- 
     
    ----------                            ---------- 
    ----5/8--- Slide Up                   -----x---- Dead Note 
    ----------                            ---------- 
    ----5\8--- Slide Down                 ---------- 
    
    ----------                            ||------|| Repeat Start & End 
    ----5~~~-- Vibrato                    ||*----*|| 
    ----------                            ||*----*|| 
    ----------                            ||------|| 
   
    Rhythm: 
      w = whole note            W = dotted whole 
      h = half note             H = dotted half 
      q = quarter note          Q = dotted quarter 
      e = eighth note           E = dotted eighth 
      s = sixteenth note        S = dotted sixteenth 
      ^ = triplet 
     
=============================================== 
		    __          
	 	  +|oo|+ 
		  +|oo|+        
	 	    ||                 
		    || 
		    ||                  
		    ||                   
 		    || 
		    ||             
 		    ||          
		 _  ||  _       
		 \\_||_//       
  		  | {} |        
 		  | || | 
 		 /  {}  \       
 		 \______/       
      
 
 
less
plus
Add to Songbook Print Version How to play lesson Submit videolesson
Click the best TAGS for this song:
None of them
Contributor: geekhugo Correct

If you can not find the chords or tabs you want, look at our partner E-chords. If you are a premium member, you have total access to our video lessons.

If you find a wrong Bad To Me from Red Hot Chili Peppers, click the correct button above.

login/signup
my songbooks
my recent views
my submits