Red Hot Chili Peppers

By The Way (ver. 2) tab

Red Hot Chili Peppers

tools Ultimate Tabs

Start AutoScroll Font Size Down Font Size Up

Find us on Facebook

chords
tabs
bass ukulele keyboards drums
flute
harmonica
guitar pro
video
Ultimate-Tabs

By The Way (ver. 2)

     ..:: Red Hot Chili Peppers - By The Way ::.. 
 
  Uma perfeita tablatura para uma perfeita música, assim como todas as outras do Red Hot Chili 
Peppers :) 
 
-  Bom, para começar, nessa música há 2 instrumentos de corda: a guitarra e o baixo. 
-  Distorções: Limpa e Distortion (Overdrive ou outra de Rock) 
-  Afinação padrão (EADGBe) 
________________________________________________________ 
 
         Red Hot Chili Peppers - By The Way 
 
 
- INTRO -> 
(clean) 
 
I) 
     F                       C 
e| -------------------------------------------------- 
B| -------------------------------------------------- 
G| -------------------------------------------------- 
D| --10-10-10-10-10-10-10-10-10-10-10-10-10-10-10-10- 
A| ---8--8--8--8--8--8--8--8--7--7--7--7--7--7--7--7- 
E| -------------------------------------------------- 
 
     A 
e| -------------------------------------------------- 
B| -------------------------------------------------- 
G| -------------------------------------------------- 
D| --7--7--7--7--7--7--7--7--7--7--7--7--7--7--7--7-- 
A| --7--7--7--7--7--7--7--7--7--7--7--7--7--7--7--7-- 
E| --5--5--5--5--5--5--5--5--5--5--5--5--5--5--5--5-- 
 
II) 
 
     F                       E 
e| -------------------------------------------------- 
B| -------------------------------------------------- 
G| ---------------------------9--9--9--9--9--9--9--9- 
D| --10-10-10-10-10-10-10-10--x--x--x--x--x--x--x--x- 
A| ---8--8--8--8--8--8--8--8--7--7--7--7--7--7--7--7- 
E| -------------------------------------------------- 
 
     A 
e| -------------------------------------------------- 
B| -------------------------------------------------- 
G| --------------------------------------9--9--7--7-- 
D| --7--7--7--7--7--7--7--7--7--7--7--7-------------- 
A| --7--7--7--7--7--7--7--7--7--7--7--7-------------- 
E| --5--5--5--5--5--5--5--5--5--5--5--5-------------- 
 
III) 
 
     F                       C 
e| -------------------------------------------------- 
B| -------------------------------------------------- 
G| -------------------------------------------------- 
D| --10-10-10-10-10-10-10-10-10-10-10-10-10-10-10-10- 
A| ---8--8--8--8--8--8--8--8--7--7--7--7--7--7--7--7- 
E| -------------------------------------------------- 
 
     A 
e| -------------------------------------------------- 
B| -------------------------------------------------- 
G| -------------------------------------------------- 
D| --7--7--7--7--7--7--7--7--7--7--7--7--7--7--7--7-- 
A| --7--7--7--7--7--7--7--7--7--7--7--7--7--7--7--7-- 
E| --5--5--5--5--5--5--5--5--5--5--5--5--5--5--5--5-- 
 
IV) 
 
     F                       C 
e| -------------------------------------------------- 
B| -------------------------------------------------- 
G| ---------------------------9--9--9--9--9--9--9--9- 
D| --10-10-10-10-10-10-10-10--x--x--x--x--x--x--x--x- 
A| ---8--8--8--8--8--8--8--8--7--7--7--7--7--7--7--7- 
E| -------------------------------------------------- 
 
     A 
e| -------------------------------------------------- 
B| -------------------------------------------------- 
G| --14-14-14-14-14-14-14-14-14-14-14-14-14-14-14-14- 
D| -------------------------------------------------- 
A| --12-12-12-12-12-12-12-12-12-12-12-12-12-12-12-12- 
E| -------------------------------------------------- 
 
 
- VERSO -> 
(distorted) 
 
 Bom, nessa parte a guitarra só fica abafando (com a mão 
esquerda). É só colocar a mao sobre as cordas sem pressionar 
nenhum traste e ficar dando palhetadas rapidas criando um 
ritmo que se encaixa com o da música (se você ouvir bem a  
música, tente ouvir a parte do aabafado). 
 Enquanto a guitarra abafa, o Baixo faz o riff. Mas um pouco 
pra frente do verso, a guitarra faz um riffzinho facil. 
 É só acompanhar a tablatura... 
 
     
e| -x-x-x-x-x-x-x-x-x-x-x-x-x-x-x-x-x-x-x-x-x-x-x-x-- 
B| -x-x-x-x-x-x-x-x-x-x-x-x-x-x-x-x-x-x-x-x-x-x-x-x-- 
G| -x-x-x-x-x-x-x-x-x-x-x-x-x-x-x-x-x-x-x-x-x-x-x-x-- 
D| -------------------------------------------------- 
A| -------------------------------------------------- 
E| -------------------------------------------------- 
 
 Aqui entra a guitarra (lembre-se de ouvir bem a musica pra 
nao errar na hora da entrada!) 
 
e| ---------------------------- 
B| -13-13-13-13-13-13-13-13-13- 
G| ---------------------------- 
D| ---------------------------- 
A| ---------------------------- 
E| ---------------------------- 
 
 E esta parte é a parte em que ele fala aquelas coisas rapidas 
(Dogtown, Bloodbath, Softtail, etc etc..) 
     
    Dm 
e| -10-10-x-x-x-x-x-10-10-x-x-x-x-x- 
B| -10-10-x-x-x-x-x-10-10-x-x-x-x-x- 
G| -10-10-x-x-x-x-x-10-10-x-x-x-x-x- 
D| --------------------------------- 
A| --------------------------------- 
E| --------------------------------- 
 
 É esse o esquema do verso, é so sabe a hora de cada coisa agora 
 
 
- Refrão -> 
(distorted) 
 
 O Refrão é feito na base dos seguintes acordes: F  C  Dm  Am  A# . 
 
F 
Standing in line  
           C 
To see the show tonight  
              Dm 
And there's a light on  
 
Heavy glow  
F 
By the way 
  C 
I tried to say  
    Am 
I'd be there  
A# 
Waiting for  
 
 
- VERSO -> 
(distorted) 
 
  A mesma coisa do verso anterior... 
 
e| -x-x-x-x-x-x-x-x-x-x-x-x-x-x-x-x-x-x-x-x-x-x-x-x-- 
B| -x-x-x-x-x-x-x-x-x-x-x-x-x-x-x-x-x-x-x-x-x-x-x-x-- 
G| -x-x-x-x-x-x-x-x-x-x-x-x-x-x-x-x-x-x-x-x-x-x-x-x-- 
D| -------------------------------------------------- 
A| -------------------------------------------------- 
E| -------------------------------------------------- 
 
e| ---------------------------- 
B| -13-13-13-13-13-13-13-13-13- 
G| ---------------------------- 
D| ---------------------------- 
A| ---------------------------- 
E| ---------------------------- 
 
    Dm 
e| -10-10-x-x-x-x-x-10-10-x-x-x-x-x- 
B| -10-10-x-x-x-x-x-10-10-x-x-x-x-x- 
G| -10-10-x-x-x-x-x-10-10-x-x-x-x-x- 
D| --------------------------------- 
A| --------------------------------- 
E| --------------------------------- 
 
 
- Refrão -> 
(clean) 
 
 É nessa parte que pára a bateria. Fica só a guitarra e o baixo. 
 É o mesmo esquema da introdução, só que o vocal já entra na  
primeira parte... 
 
I) 
     F                       C 
e| -------------------------------------------------- 
B| -------------------------------------------------- 
G| -------------------------------------------------- 
D| --10-10-10-10-10-10-10-10-10-10-10-10-10-10-10-10- 
A| ---8--8--8--8--8--8--8--8--7--7--7--7--7--7--7--7- 
E| -------------------------------------------------- 
 
     A 
e| -------------------------------------------------- 
B| -------------------------------------------------- 
G| -------------------------------------------------- 
D| --7--7--7--7--7--7--7--7--7--7--7--7--7--7--7--7-- 
A| --7--7--7--7--7--7--7--7--7--7--7--7--7--7--7--7-- 
E| --5--5--5--5--5--5--5--5--5--5--5--5--5--5--5--5-- 
 
II) 
 
     F                       E 
e| -------------------------------------------------- 
B| -------------------------------------------------- 
G| ---------------------------9--9--9--9--9--9--9--9- 
D| --10-10-10-10-10-10-10-10--x--x--x--x--x--x--x--x- 
A| ---8--8--8--8--8--8--8--8--7--7--7--7--7--7--7--7- 
E| -------------------------------------------------- 
 
     A 
e| -------------------------------------------------- 
B| -------------------------------------------------- 
G| --------------------------------------9--9--7--7-- 
D| --7--7--7--7--7--7--7--7--7--7--7--7-------------- 
A| --7--7--7--7--7--7--7--7--7--7--7--7-------------- 
E| --5--5--5--5--5--5--5--5--5--5--5--5-------------- 
 
III) 
 
     F                       C 
e| -------------------------------------------------- 
B| -------------------------------------------------- 
G| -------------------------------------------------- 
D| --10-10-10-10-10-10-10-10-10-10-10-10-10-10-10-10- 
A| ---8--8--8--8--8--8--8--8--7--7--7--7--7--7--7--7- 
E| -------------------------------------------------- 
 
     A 
e| -------------------------------------------------- 
B| -------------------------------------------------- 
G| -------------------------------------------------- 
D| --7--7--7--7--7--7--7--7--7--7--7--7--7--7--7--7-- 
A| --7--7--7--7--7--7--7--7--7--7--7--7--7--7--7--7-- 
E| --5--5--5--5--5--5--5--5--5--5--5--5--5--5--5--5-- 
 
IV) 
 
     F                       C 
e| -------------------------------------------------- 
B| -------------------------------------------------- 
G| ---------------------------9--9--9--9--9--9--9--9- 
D| --10-10-10-10-10-10-10-10--x--x--x--x--x--x--x--x- 
A| ---8--8--8--8--8--8--8--8--7--7--7--7--7--7--7--7- 
E| -------------------------------------------------- 
 
     A 
e| -------------------------------------------------- 
B| -------------------------------------------------- 
G| --14-14-14-14-14-14-14-14-14-14-14-14-14-14-14-14- 
D| -------------------------------------------------- 
A| --12-12-12-12-12-12-12-12-12-12-12-12-12-12-12-12- 
E| -------------------------------------------------- 
 
 
- INTERLUDE -> 
(distorted) 
 
 Agora entra a interlude, que ja é uma ligação com outro 
Refrão.  A interlude é igual ao verso, só que não tem a 
introdução da guitarra logo no começo, só na parte que o 
Anthony fala uns negócio mastigado que ele inventa :) 
 
    Dm 
e| -10-10-x-x-x-x-x-10-10-x-x-x-x-x- 
B| -10-10-x-x-x-x-x-10-10-x-x-x-x-x- 
G| -10-10-x-x-x-x-x-10-10-x-x-x-x-x- 
D| --------------------------------- 
A| --------------------------------- 
E| --------------------------------- 
 
 Enquanto a guitarra faz isso aí em cima, o baixo faz o  
riff do verso. 
 
 Agora é a parte que o Anthony fala aquelas babosera la. 
Aí já volta no mesmo esquema do verso... 
 
e| ---------------------------- 
B| -13-13-13-13-13-13-13-13-13- 
G| ---------------------------- 
D| ---------------------------- 
A| ---------------------------- 
E| ---------------------------- 
 
    Dm 
e| -10-10-x-x-x-x-x-10-10-x-x-x-x-x- 
B| -10-10-x-x-x-x-x-10-10-x-x-x-x-x- 
G| -10-10-x-x-x-x-x-10-10-x-x-x-x-x- 
D| --------------------------------- 
A| --------------------------------- 
E| --------------------------------- 
 
  Pronto, essa é a Interlude. 
Acabada ela, volta o esquema la do Refrão com guitarra distorcida :) 
 
- Refrão -> 
(distorted) 
 
 Mesmo esquema do primeiro Refrão só que esse é maior... 
 
F 
Standing in the line 
           C 
To see the show tonight  
              Dm 
And there's a light on 
 
Heavy glow 
F 
By the way 
  C 
I tried to say  
    Am 
I'd be there...  
A# 
Waiting for  
 
F 
Dani the girl  
           C 
Is singing songs to me  
            Dm 
Beneath the marquee 
 
Of her soul  
F 
By the way 
  C 
I tried to say  
       Am 
I know you  
A# 
From before  
 
 
- OUTRO -> 
(clean) 
 
 Ultima parte da música. É um Refrão tambem, igual aos outros 
só que além de nao ter distorção, esse é só uma partezinha... 
 
F 
Standing in line  
           C 
To see the show tonight  
              Dm 
And there's a light on  
 
Heavy glow  
F 
By the way 
  C 
I tried to say  
    Am 
I'd be there  
A# 
Waiting for 
 
 Aí o John encerra a música com um Dm :) 
 
________________________________________________________ 
 
 Ae, acabou a música... 
 Espero que essa tab tenha realmente ajudado vocês, porque 
eu, como sempre, tentei detalhar direitinho ai a musica, mas 
se surgir alguma duvida, mande um email pra mim: [email protected] 
 Não se esqueça de ouvir bem a música pra pegar os 'macetes'. 
 Como você já percebeu, eu realmente pego no pé com esse negócio de 
ouvir a música várias vezes, mas isso é realmente fundamental pra você 
entender a música nos mínimos detalhes... Ah, também tem um show do 
Red Hot em Paris (Olympia) que seria interessante que vocês vissem ou 
qualquer outro show que vocês puderem baixar, isso tambem ajuda muito na 
hora de 'tirar' a música... 
 
 Aí gente, 
 Obrigado por acessar a tab, espero que tenha ajudado... 
Se vocês gostaram da tab, acessem minhas outras pois apesar de serem poucas, 
são bem detalhadas e eu to sempre dando umas dicas pra ficar cada vez mais 
parecido com a música original... 
 
  Abraços para todos, fiquem com Deus e até mais... 
   

*tab inteiramente digitada por mim (exceto a letra da música)  
less
plus
Add to Songbook Print Version How to play lesson Submit videolesson
Click the best TAGS for this song:
None of them
Contributor: nickavri Correct

If you can not find the chords or tabs you want, look at our partner E-chords. If you are a premium member, you have total access to our video lessons.

If you find a wrong Bad To Me from Red Hot Chili Peppers, click the correct button above.

login/signup
my songbooks
my recent views
my submits