Red Hot Chili Peppers

Californication(ver.2) tab

Red Hot Chili Peppers

tools Ultimate Tabs

Start AutoScroll Font Size Down Font Size Up

Find us on Facebook

chords
tabs
bass
ukulele
keyboards
drums
flute
harmonica
guitar pro
video
Ultimate-Tabs

Californication(ver.2)

 
Introdução 
   Am                F 
E|---------------------------------|| 
B|-----0-1-------------------------|| 
G|----------------------0-2--------|| 
D|---2-----------------------------|| 
A|-0------------------3------------|| 
E|------------------1--------------|| 
 
  Am                F 
E|---------------------------------|| 
B|-----0-1-------------------------|| 
G|----------------------0-2--------|| 
D|---2-----------------------------|| 
A|-0------------------3------------|| 
E|------------------1--------------|| 
 
Verso 1: 
 
  Am                F 
E|---------------------------------|| 
B|-----0-1-------------------------|| 
G|----------------------0-2--------|| 
D|---2-----------------------------|| 
A|-0------------------3------------|| 
E|------------------1--------------|| 
 
  Am                F 
E|---------------------------------|| 
B|-----0-1-------------------------||   
G|----------------------0-2--------||    
D|---2-----------------------------||     
A|-0------------------3------------||      
E|------------------1--------------||      
                                           
  Am                F 
E|---------------------------------||      
B|-----0-1-------------------------||      
G|----------------------0-2--------||     
D|---2-----------------------------||    
A|-0------------------3------------||   
E|------------------1--------------|| 
 
   C       G      F         Dm 
E|-----0------------------------1--|| 
B|-------1-----3--------------3----|| 
G|--------------------------2------|| 
D|---2----------0-----3---0--------|| 
A|-3---------2------3---3----------|| 
E|---------3------1----------------|| 
 
Verso 2: 
 
  Am                F 
E|---------------------------------|| 
B|-----0-1-------------------------||   
G|----------------------0-2--------||    
D|---2-----------------------------||     
A|-0------------------3------------||      
E|------------------1--------------||      
                                            
  Am                F 
E|---------------------------------||      
B|-----0-1-------------------------||      
G|----------------------0-2--------||     
D|---2-----------------------------||    
A|-0------------------3------------||   
E|------------------1--------------|| 
 
  C       G      F         Dm 
E|-----0------------------------1--|| 
B|-------1-----3--------------3----|| 
G|--------------------------2------|| 
D|---2----------0-----3---0--------|| 
A|-3---------2------3---3----------|| 
E|---------3------1----------------|| 
 
Pré-Chorus:   
     
     Am    Fm7   Am   Fm7 
E|---0-----0-----0----0----|| 
B|---1-----1-----1----1----||  
G|---2-----2-----2----2----||   
D|---2-----3-----2----3----||   
A|---0-----3-----0----3----||  
E|-------------------------|| 
 
Chorus:  
     C     G     Dm    Am    C     G     Dm 
E|---0-----3-----1-----0-----0-----3-----1-|| 
B|---1-----0-----3-----1-----1-----0-----3-||  
G|---0-----0-----2-----2-----0-----0-----2-||   
D|---2-----0-----0-----2-----2-----0-----0-||   
A|---3-----2-----------0-----3-----2-------||  
E|---------3-----------------------3-------|| 
 
Verse 3: 
 
  Am                F 
E|---------------------------------|| 
B|-----0-1-------------------------||   
G|----------------------0-2--------||    
D|---2-----------------------------||     
A|-0------------------3------------||      
E|------------------1--------------||      
                                           
  Am                 
E|---------------------------------||      
B|-----0-1-------------------------||      
G|----------------------0-2--------||     
D|---2-----------------------------||    
A|-0------------------3------------||   
E|------------------1--------------|| 
 
  C       G      F         Dm 
E|-----0------------------------1--|| 
B|-------1-----3--------------3----|| 
G|--------------------------2------|| 
D|---2----------0-----3---0--------|| 
A|-3---------2------3---3----------|| 
E|---------3------1----------------|| 
 
Verso 4: 
 
  Am                F 
E|---------------------------------|| 
B|-----0-1-------------------------||   
G|----------------------0-2--------||    
D|---2-----------------------------||     
A|-0------------------3------------||      
E|------------------1--------------||      
                                            
  Am                F 
E|---------------------------------||      
B|-----0-1-------------------------||      
G|----------------------0-2--------||     
D|---2-----------------------------||   
A|-0------------------3------------||   
E|------------------1--------------|| 
 
  C       G      F         Dm 
E|-----0------------------------1--|| 
B|-------1-----3--------------3----|| 
G|--------------------------2------|| 
D|---2----------0-----3---0--------|| 
A|-3---------2------3---3----------|| 
E|---------3------1----------------|| 
 
Pré-Chorus:   
     
     Am    Fm7   Am   Fm7 
E|---0-----0-----0----0----|| 
B|---1-----1-----1----1----||  
G|---2-----2-----2----2----||  
D|---2-----3-----2----3----||   
A|---0-----3-----0----3----||  
E|-------------------------|| 
 
Chorus:  
     C     G     Dm    Am    C     G     Dm 
E|---0-----3-----1-----0-----0-----3-----1-|| 
B|---1-----0-----3-----1-----1-----0-----3-||  
G|---0-----0-----2-----2-----0-----0-----2-||   
D|---2-----0-----0-----2-----2-----0-----0-||   
A|---3-----2-----------0-----3-----2-------||  
E|---------3-----------------------3-------|| 
 
Solo: (na casa 13 faz se um bend e um slide ao mesmo tempo) 
         
             
E|-----9---------------------9---------------------------------------|| 
B|----------------------10-------------------------------------------|| 
G|10-------{13}11----------------{13}11------11-11-11-11p9-----------|| 
D|---------------------------------------------------------11-11-----|| 
A|-------------------------------------------------------------------|| 
E|-------------------------------------------------------------------|| 
 
E|----------------------------9---12---14-----------9---12---14b16-14|| 
B|------------------------10--------------------10-------------------|| 
G|-------9--{1311}-9-------------------------------------------------|| 
D|--9-11------------11-----------------------------------------------|| 
A|-------------------------------------------------------------------|| 
E|-------------------------------------------------------------------|| 
 
E|-17-16-14-12-14-12-9-12-9-9----9----9---12--9-----|| 
B|--------------------------14---14---14------------|| 
G|--------------------------------------------------|| 
D|--------------------------------------------------|| 
A|--------------------------------------------------|| 
E|--------------------------------------------------|| 
 
E|-14b16r14-12----12----------12--------|| 
B|-------------14----14-12------15-14---|| 
G|-------------------------14---------14|| 
D|--------------------------------------|| 
A|--------------------------------------|| 
E|--------------------------------------|| 
 
Verso 5: 
 
  Am                F 
E|---------------------------------|| 
B|-----0-1-------------------------||   
G|----------------------0-2--------||    
D|---2-----------------------------||     
A|-0------------------3------------||      
E|------------------1--------------||      
                                           
  Am                F 
E|---------------------------------||      
B|-----0-1-------------------------||      
G|----------------------0-2--------||     
D|---2-----------------------------||    
A|-0------------------3------------||   
E|------------------1--------------||  
 
  C       G      F         Dm 
E|-----0------------------------1--|| 
B|-------1-----3--------------3----|| 
G|--------------------------2------|| 
D|---2----------0-----3---0--------|| 
A|-3---------2------3---3----------|| 
E|---------3------1----------------|| 
 
Pré-Chorus:   
    
     Am    Fm7   Am   Fm7 
E|---0-----0-----0----0----|| 
B|---1-----1-----1----1----||  
G|---2-----2-----2----2----||   
D|---2-----3-----2----3----||   
A|---0-----3-----0----3----||  
E|-------------------------|| 
 
Chorus:  
     C     G     Dm    Am    C     G     Dm 
E|---0-----3-----1-----0-----0-----3-----1-|| 
B|---1-----0-----3-----1-----1-----0-----3-||  
G|---0-----0-----2-----2-----0-----0-----2-||  
D|---2-----0-----0-----2-----2-----0-----0-||   
A|---3-----2-----------0-----3-----2-------||  
E|---------3-----------------------3-------|| 
 
Essa é pra galera de jataí-go 
 
 
 
 
 
less
plus
Add to Songbook Print Version How to play lesson Submit videolesson
Click the best TAGS for this song:
None of them
Contributor: silvmand Correct

If you can not find the chords or tabs you want, look at our partner E-chords. If you are a premium member, you have total access to our video lessons.

If you find a wrong Bad To Me from Red Hot Chili Peppers, click the correct button above.

login/signup
my songbooks
my recent views
my submits