Red Hot Chili Peppers

Californication (ver. 2) tab

Red Hot Chili Peppers

tools Ultimate Tabs

Start AutoScroll Font Size Down Font Size Up

Find us on Facebook

chords
tabs
bass
ukulele keyboards drums
flute
harmonica
guitar pro
video
Ultimate-Tabs

Californication (ver. 2)

 
Riff 1: 
 
e|----------------------------------| 
B|------0-1-------------------------| 
G|------------------------0-2-------| 
D|----2---2--2-0h2p0--------0--0----| 
A|--0-------------------3--------3--| 
E|--------------------1-------------| 
  
Riff 2: 
  
e|----------------------------------| 
B|------0-1-------------------------| 
G|------------------------0-2-------| 
D|----2---2--2-0h2p0--------3--3-0--| 
A|--0-------------------3-----------| 
E|--------------------1-------------| 
 
Riff 3: 
 
e|-----0-------------------------1--|      
B|------0------0-----------------3--| 
G|---0-----------0-------------2----| 
D|-----------0----------3----0------| 
A|-3------------------3---3---------| 
E|---------3--------1---------------| 
 
-Introdução: 
 
Riff 1 
Riff 2 
 
 
Riff 1    
Psychic spies from China  
Try to steal your mind?s elation  
 
Riff 2 
Little girls from Sweden  
Dream of silver screen quotations  
 
Riff 3                        
And if you want these kind of dreams  
It?s Californication  
 
 
Riff 1 
Riff 2 
 
 
Riff 1 
It?s the edge of the world  
And all of western civilization  
 
Riff 2 
The sun may rise in the East  
At least it settles in the final location  
 
Riff 3          
It?s understood that Hollywood  
sells Californication 
 
 
Am   F 
Am   F 
 
 
Am               F 
Pay your surgeon very well 
   Am                 F 
To break the spell of aging 
  Am                   F  
Celebrity skin is this your chin 
      Am             F  
Or is that war your waging  
 
 
Refrão: 
Am              F 
  First born unicorn 
Am               F 
  Hard core soft porn  
  C            G    Dm/C   Am  
  Dream of Californication  
  C            G    Dm/C 
  Dream of Californication  
 
 
Riff 1 
Riff 2 
 
 
Riff 1 
Marry me girl be my fairy to the world 
Be my very own constellation 
            
Riff 2 
A teenage bride with a baby inside 
Getting high on information  
            
Riff 3 
And buy me a star on the boulevard 
It?s Californication  
 
 
Riff 1 
Riff 2 
 
 
Riff 1 
Space may be the final frontier 
But it?s made in a Hollywood basement 
 
Riff 2 
Cobain can you hear the spheres 
Singing songs off station to station 
 
Riff 3 
And Alderon?s not far away 
It?s Californication 
 
 
Am   F 
Am   F 
 
 
Am                 F  
Born and raised by those who praise 
   Am          F 
Control of population  
Am               F 
Everybody?s been there and 
  Am              F  
I don?t mean on vacation 
 
 
Refrão 
 
 
C            G    Dm/C   Am 
Dream of Californication 
C            G    Dm/C   Am 
Dream of Californication 
 
 
Solo: 
 
e|--9--12-----------9--12-----------------------------------------------------| 
B|----------------------------------------------------------------------------| 
G|---------11^-11----------11^-11--11-11-11-11-9---------------9---11^---9----| 
D|-----------------------------------------------11-9---9--11-------------11--| 
 
e|--9-10-12-14---9-10-12-14^14---17-17--16-16--14-14--12-12--14-12----12-----| 
B|-----------------------------------------------------------------14----14--| 
G|---------------------------------------------------------------------------| 
D|---------------------------------------------------------------------------| 
 
e|--9---9---9-12----14^12----12-------------12------------| 
B|---------------14-------14----14--12--14------15-14-----| 
G|----------------------------------------------------14--| 
D|--------------------------------------------------------| 
 
 
Riff 1 
Riff 2 
 
 
Riff 1 
Destruction leads to a very rough road 
But it also breeds creation 
            
Riff 2 
And earthquakes are to a girl?s guitar 
They?re just another good vibration 
           
Riff 3 
And tidal waves couldn?t save the world 
From Californication  
 
 
Am   F 
Am   F 
 
 
Am               F 
Pay your surgeon very well 
   Am                 F  
To break the spell of aging 
Am                   F 
Sicker than the rest there is no test   
    Am                  F 
But this is what you?re craving 
 
 
Refrão 
 
 
C            G    Dm/C   Am 
Dream of Californication  
C            G    Dm/C 
Dream of Californication 
 
 
 
_______________________________________________________ 
Contribuição: Luiz Vieira Lemes([email protected])  
less
plus
Add to Songbook Print Version How to play lesson Submit videolesson
Click the best TAGS for this song:
None of them
Contributor: dittcarm Correct

If you can not find the chords or tabs you want, look at our partner E-chords. If you are a premium member, you have total access to our video lessons.

If you find a wrong Bad To Me from Red Hot Chili Peppers, click the correct button above.

login/signup
my songbooks
my recent views
my submits