Red Hot Chili Peppers

Californication tab

Red Hot Chili Peppers

Album:Greatest Hits

Year:2003

tools Ultimate Tabs

Start AutoScroll Font Size Down Font Size Up

Find us on Facebook

Ultimate-Tabs

Californication

Sem distorção 

Introdução 

Riff 1 
                    Uma vez cada uma (Só muda o final)      
|-------------------------------------|------------------------------------ 
|------0-1----------------------------|-------0--1------------------------- 
|--------------------------0--2-------|---------------------------0--2----- 
|----2---2----2-0h2-----------0--0----|----2-----2----2-0h2----------3-3-0- 
|--0-----------------3---2-3--------3---|-0-------------------- 3---2-3--------- 
|----------------------1-1-------------|-------------------------1-1--------- 
Toque 6x 
  
Riff 2 
       
|------0---------------------------| 
|---------------0--------------3---| 
|----0------------------2----2-----| 
|------------0-------------0-------| 
|--3----------2------3-------------| 
tocar 1x 

         Riff 1    
Psychic spies from China  
         Riff 1    
Try to steal your mind's elation  
         Riff 1    
Little girls from Sweden  
            Riff 1           
Dream of silver screen quotations  
          Riff 1                        
And if you want these kind of dreams  
          Riff 1     
It's Californication  
         Riff 1    
It's the edge of the world  
         Riff 1    
And all of western civilization  
         Riff 1    
The sun may rise in the East  
          Riff 1    
At least it settles in the final location  
         Riff 2          
It's understood that Hollywood  
         Riff 2 
sells Californication 

Am                    F 
Pay your surgeon very well 
Am                    F 
To break the spell of aging 
Am                    F  
Celebrity skin is this your chin 
Am                    F  
Or is that war your waging  

Am                    F 
First born unicorn 
Am                    F 
Hard core soft porn  
C            G    Dm     Am  
Dream of Californication  
C            G    Dm 
Dream of Californication  

obs: o rítimo do refrão quebra. 

           Riff 1 
Marry me girl be my fairy to the world 
           Riff 1 
Be my very own constellation 
           Riff 1 
A teenage bride with a baby inside 
           Riff 1 
Getting high on information  
           Riff 2 
And buy me a star on the boulevard 
           Riff 2 
It's Californication  

           Riff 1 
Space may be the final frontier 
           Riff 1 
But it's made in a Hollywood basement 
           Riff 1 
Cobain can you hear the spheres 
           Riff 1 
Singing songs off station to station 
           Riff 2 
And Alderon's not far away 
           Riff 2 
It's Californication 

Am                F  
Born and raised by those who praise 
Am                F  
Control of population everybody's been there and 
Am                F  
I don't mean on vacation 
Am                    F 
First born unicorn 
Am                    F 
Hard core soft porn  
C            G    Dm     Am  
Dream of Californication  
C            G    Dm 
Dream of Californication 

Dream of Californication  
C            G    Dm 
Dream of Californication 
Solo(03:19-03:58)- distorção leve 
( Essa vai para os meus colegas do J.P ), 

e-|--9------9------------------------------------------------| 
B|-|10-----10-------------------------------------------------| 
g-|-  11^-----11^----11-11-11-9--------------9--11^---9------| 
d-|-----------------------------11-9-9--11-----------------11| 


e-|---9-12-14----9-12-14^-14--17-16-14-12-14-12--12----9---9-------| 
B|-|-10---------10------------------------------14--14--12^--12^----| 
G|-|----------------------------------------------------------------| 

e-|--12----14^12-------12------------| 
B|-|14---14-------14--12-15-14--------| 
G|-|----------------------------14----| 
           Riff 1 
Destruction leads to a very rough road 
           Riff 1 
But it also breeds creation 
           Riff 1 
And earthquakes are to a girl's guitar 
           Riff 1 
They're just another good vibration 
           Riff 2 
And tidal waves couldn't save the world 
           Riff 2 
From Californication  
Am                    F 
Pay your surgeon very well 
Am                    F  
To break the spell of aging 
Am                    F 
Sicker than the rest  
Am                    F 
Am                    F 
There is no test  
Am                    F 
But this is what you're craving 
  
Am                    F 
First born unicorn 
Am                    F 
Hard core soft porn  
C            G    Dm     Am  
Dream of Californication  
C            G    Dm 
Dream of Californication 

Dream of Californication  
C            G    Dm 
Dream of Californication 

    A música corre dessa forma: 
             riff 1 x6 
             riff 2 x1 
             riff 1 x6 
             riff 2 x1 
             anti-refrão x1 
             refrão x1 
             riff 1 x6 
             riff 2 x1 
             riff 1 x6 
             riff 2 x1 
             anti-refrão x1 
             refrão x1                           
             solo x 1 
             riff 1 x6 
             riff 2 x1             
             anti-refrão x1 
             refrão x1  
                                     
obs:há refrões mais longos que outros,então siga pela letra, também é 
 importante lembrar que o rítimo do refrão é quebrado. 


códigos da tablatura: 
b=bende(é nececessário subir ou descer bastante a corda para que no  
caso a nota eleve 1 tom) 
p=pull off(é necessário tocar a primeira nota e dar puxada forte) 
sl=slide(é necessário tocar a primeira nota e escorregar o dedo até a  
segunda) 
less
plus
Add to Songbook Print Version How to play lesson Submit videolesson
Click the best TAGS for this song:
None of them
Contributor: kissLevo Correct

If you can not find the chords or tabs you want, look at our partner E-chords. If you are a premium member, you have total access to our video lessons.

If you find a wrong Bad To Me from Red Hot Chili Peppers, click the correct button above.

login/signup
my songbooks
my recent views
my submits