Red Hot Chili Peppers

Don't Forget Me tab

Red Hot Chili Peppers

Album:By the Way

Year:2002

tools Ultimate Tabs

Start AutoScroll Font Size Down Font Size Up

Find us on Facebook

Ultimate-Tabs

Don't Forget Me

IntroduÁ„o:

e|------------------------------------------------------
b|------------------------------------------------------
g|------------------------------------------------------
d|------------------------3/5-5-x-x-x-x-----------------
a|--7-x-x-x-x--3-x-x-x-x------3-x-x-x-x--5-x-x-x-x------
E|--5-x-x-x-x--1-x-x-x-x-----------------3-x-x-x-x------

e|---------------------------------------------------
b|---------------------------------------------------
g|---------------------------------------------------
d|-------------------------5-x-x-x-x-----------------
a|--7-x-x-x-x--3-x-x-x-x---3-x-x-x-x--5-x-x-x--------
E|--5-x-x-x-x--1-x-x-x-x--------------3-x-x-x--------

no ultimo C5 ele abafa sů 3 vezes, depois comeÁa a letra e fica os mesmos acordes...

Iím a oncean in your bedroom 
Make you feel warm
Make you want to re-absume
Now we know it all for sure

Agora no segundo verso fica um dedilhado no fundo, abafado

E |-0--0--0-0-0-0-0-0-0-0-...---|
B |-----------------------------|
G |-----------------------------|
D |-----------------------------|
A |-----------------------------|
E |-----------------------------|

Iím a dance hall dirty breakbeat 
Make the snow fall
Up from underneath your feet
Not alone, iíll be there
Tell me when you want to go

Depois q acaba esse verso vem um solo em two-hands 
(ť aquele tipo de solo q se fais com o dedo no braÁo na guitarra sem palheta)

E |--7/0/5--(repete 14 vezes)--8/0/5 (repete 14 vezes)|
B |---------------------------------------------------|
G |---------------------------------------------------|   2x
D |---------------------------------------------------|     
A |---------------------------------------------------|
E |---------------------------------------------------|

Depois o Anthony canta o průximo verso com aquele dedilhadinho no fundo:

Iím a meth lab first rehab 
Take it all off
And step inside the running  cab
Thereís a love that knows the way

E |-----------------------------|
B |-----------------------------|
G |-9-9-9-9-9-9-9-9-9-9-...-----|
D |-----------------------------|
A |-----------------------------|
E |-----------------------------|

Agora vem o průximo verso com as tho-hands no fundo:

Iím the rainbow in your jail cell
All the memories of
Everything youíve ever smelled
Not alone, iíll be there
Tell me when you want to go

E |--7/0/5--(repete 14 vezes)--8/0/5 (repete 14 vezes)|
B |---------------------------------------------------|
G |---------------------------------------------------|   2x
D |---------------------------------------------------|     
A |---------------------------------------------------|
E |---------------------------------------------------|

Agora vem a parte do refr„o:

A5       F5  
Sideways falling

C5                    G5
More will be revealed my fiend

A5              F5
Donít forget me i cant hide it

C5              G5
Come again get reignited


Solo 1:

E |--12b-----------------------------------
B |----------------------------------------
G |------12~--14-14-14-14-14-----------12--
D |--------------------------14-14-14------
A |----------------------------------------
E |----------------------------------------

E |-12-12-14b-12------------------------------------------|
B |--------------------------12----12---------------------|
G |--------------12-14-14-14----14----14--12----14-12-----|
D |------------------------------------------14-------14--|
A |-------------------------------------------------------|
E |-------------------------------------------------------|

Agora volta para o verso com aquele dedilhado no fundo:

E |-----------------------------|
B |-----------------------------|
G |-9-9-9-9-9-9-9-9-9-9-...-----|
D |-----------------------------|
A |-----------------------------|
E |-----------------------------|

Iím a inbred and a pothead
Two legs that you spread 
Inside the tool shed 
Now we know it all for sure

O proximo verso tem as two-hands no fundo:

E |--7/0/5--(repete 14 vezes)--8/0/5 (repete 14 vezes)|
B |---------------------------------------------------|
G |---------------------------------------------------|   2x
D |---------------------------------------------------|     
A |---------------------------------------------------|
E |---------------------------------------------------|

I could show you
To the free field
Overcome and more
Will always be revealed 
Not alone iíll be there
Tell me when you want to go

Agora vem o Refr„o:

A5       F5  
Sideways falling

C5                    G5
More will be revealed my fiend

A5              F5
Donít forget me i cant hide it

C5              G5
Come again get reignited

A5       F5  
Sideways falling

C5                    G5
More will be revealed my fiend

A5              F5
Donít forget me i cant hide it

C5              G5
Come again get reignited

Solo 2:

E |------------------------------------|
B |--10-8---10-8-------10-8---10-8-----|
G |-------9-------9-9-------9------9---|   4x
D |------------------------------------|
A |------------------------------------|
E |------------------------------------|

Agora vem o průximo verso com os acordes do comeÁo da musica:

Iím the bloodstain
On your shirt sleeve 
Coming daum and more are coming  to believe 
Now me know it all for sure

e|---------------------------------------------|
b|---------------------------------------------|
g|---------------------------------------------|
d|-------------------------5-x-x-x-x-----------|
a|--7-x-x-x-x--3-x-x-x-x---3-x-x-x-x--5-x-x-x--|
E|--5-x-x-x-x--1-x-x-x-x--------------3-x-x-x--|

O Ultimo ť com aquele dedilhadinho:

Make the hair stand
Up on your arm
Teach you how to dance
Inside the funny farm
Not alone iíll be there
Tell me when you want to go

E |-----------------------------|
B |-----------------------------|
G |-9-9-9-9-9-9-9-9-9-9-...-----|
D |-----------------------------|
A |-----------------------------|
E |-----------------------------|

A musica termina com os acordes do comeÁo com uma pequena alteraÁ„o, a musica termina em F5:

e|---------------------------------------------------
b|---------------------------------------------------
g|---------------------------------------------------
d|-------------------------5-x-x-x-x-----------------
a|--7-x-x-x-x--3-x-x-x-x---3-x-x-x-x--5-x-x-x--------
E|--5-x-x-x-x--1-x-x-x-x--------------3-x-x-x--------

e|--------------------------|
b|--------------------------|
g|--------------------------|
d|--------------------------|
a|--7-x-x-x-x--3-x-x-x-x----|
E|--5-x-x-x-x--1-x-x-x-x----|

Red Hot Chili Peppers
 Donít forget me

Iím a oncean in your bedroom 
Make you feel warm
Make you want to re-absume
Now we know it all for sure

Iím a dance hall dirty breakbeat 
Make the snow fall
Up from underneath your feet
Not alone, iíll be there
Tell me when you want to go

Iím a meth lab first rehab 
Take it all off
And step inside the running  cab
Thereís a love that knows the way

Iím the rainbow in your jail cell
All the memories of
Everything youíve ever smelled
Not alone, iíll be there
Tell me when you want to go 

Sideways falling 
More will be revealed my fiend
Donít forget me i cant hide it 
Come again get reignited

Iím a inbred and a pothead
Two legs that you spread 
Inside the tool shed 
Now we know it all for sure

I could show you
To the free field
Overcome and more
Will always be revealed 
Not alone iíll be there
Tell me when you want to go

Choooorus

Iím the bloodstain
On your shirt sleeve 
Coming dowm and more are coming  to beliede 
Now me know it all for sure 


Make the hair stand
Up on your arm
Teach you how to dance
Inside the funny farm
Not alone iíll be there
Tell me when you want to go
less
plus
Add to Songbook Print Version How to play lesson Submit videolesson
Click the best TAGS for this song:
None of them
Contributor: cargdrea Correct

If you can not find the chords or tabs you want, look at our partner E-chords. If you are a premium member, you have total access to our video lessons.

If you find a wrong Bad To Me from Red Hot Chili Peppers, click the correct button above.

login/signup
my songbooks
my recent views
my submits