Red Zebra

I Can't Live In A Living Room bass

Red Zebra

tools Ultimate Tabs

Start AutoScroll Font Size Down Font Size Up

Find us on Facebook

chords
tabs
bass
ukulele
keyboards
drums
flute
harmonica
guitar pro
video
Ultimate-Tabs

I Can't Live In A Living Room

I Can't Live in A Living Room
Red Zebra

G---------------------------------------------------------------------------!
D-----------------------------15-14-000000000000000000000000000000000-------!
A--00000000000000000000000000-----------------------------------------15-14-!
E---------------------------------------------------------------------------!

G----------------------------------------------------------------------------------------------------------|
D-----------------------------------------------15-14-0--12--0-0-0-14--0--0--12--0-0-0---------------------|
A--0--12--0-0-0-14--0--0--12--0-0-0------------------------------------------------------------15-14-------|
E----------------------------------------------------------------------------------------------------------|

 Break:
G-------------------------------------------------------------------------------------!
D-------------------------------------------------2-----2----2-----2-----2------------!
A-----0---0---.....follow the guitar-----------0----0-----0-----0-----0----0--.....---!
E-------------------------------------------------------------------------------------!

 End:
G-----------------!
D--0-0-0----------!
A---------3-3-3---!
E-----------------!

G---------------------------------------------------------------------------!
D-----------------------------15-14-000000000000000000000000000000000-------!
A--00000000000000000000000000-----------------------------------------15-14-!
E---------------------------------------------------------------------------!

G----------------------------------------------!
D--0-0-0---------0-0-0-------------------------!
A---------3-3-3--------3-3-3----0~~~~~~~-------!
E----------------------------------------------!

less
plus
Add to Songbook Print Version How to play lesson Submit videolesson
Click the best TAGS for this song:
None of them
Contributor: jakdMans Correct

If you can not find the chords or tabs you want, look at our partner E-chords. If you are a premium member, you have total access to our video lessons.

If you find a wrong Bad To Me from Red Zebra, click the correct button above.

login/signup
my songbooks
my recent views
my submits