Redbone

Come And Get Your Love bass

Redbone

chords
tabs
bass
ukulele keyboards
drums
flute
harmonica
guitar pro
video
Ultimate-Tabs

Come And Get Your Love

http://en.wikipedia.org/wiki/Redbone_%28band%29

Tabbed By : Clark Tims
e-mail: [email protected]

Tuning: 440 - Standard

Intro:                           Guitar Begins

G|------------------------------|-------------------------------|
D|------------------------------|-------------------------------|
A|-5----5--------5--55----------|-5----5--------5--55-----------|
E|---75---75------75--75--------|---75---75------75--75---------|

First Verse:


    Hey-ay, What’s the matter with your head…..
G|------------------------------------------------|
D|------------------------------------------------|
A|-----------0-2-4-5---5-4-2---2-0*---------------|
E|-0-2-0-4-5--------------------------------------|

                                      * may be played as a 5 on E string


     Come and Get Your Love……
G|---------------------------------------------------------------------------|
D|---------------------------------------------------------------------------|
A|-----------0-2-4-5--5-4-2---2-0*--------------------25--5-4-2---2-0*-------|
E|-0-2-0-4-5--------------------------000-0222-2444-45-----------------------|

                                                           * may be played
                                                           as a 5 on E string

    Variation used occasionally
G|---------------------------------------------------------------------------|
D|---------------------------------------------------------------------------|
A|----------2-4-5--5-4-2-----------------------------------------------------|
E|-0--2-4-5------------------------------------------------------------------|


This is not perfect or all inclusive. Play around with it some and feel free to e-mail 
with any corrections. I am doing this at 2:51 am from my computer speakers, so don’t 
much J
less
plus
Add to Songbook Print Version How to play lesson Submit videolesson
Click the best TAGS for this song:
None of them
Contributor: maxeskr_ Correct

If you can not find the chords or tabs you want, look at our partner E-chords. If you are a premium member, you have total access to our video lessons.

If you find a wrong Bad To Me from Redbone, click the correct button above.

login/signup
my songbooks
my recent views
my submits