tools Ultimate Tabs

Start AutoScroll Font Size Down Font Size Up

Find us on Facebook

chords
tabs
bass
ukulele
keyboards
drums
flute
harmonica
guitar pro
video
Ultimate-Tabs

Cannibal

I used the original demo for this tab, not the version on the album,I like the bass part 
in that version.  Also I dont think the inrto part 1 is exactly right.

Intro part 1
G|-16-16-16-16-16-|-14-14-149-9-9-|7-7-7--6-6-6-7-7|7-7-7--6-6-6-7-7|
D|----------------|----------------|----------------|----------------|  x3
A|----------------|----------------|----------------|----------------|
E|----------------|----------------|----------------|----------------|

Intro part 2
G|-----------------|----------------|------------------|----------------|
D|-----------0h7-5-|----4-------5---|----7-7-7-7-0h7-5-|----4-------5---|
A|----------------7|----------------|-----------------7|----------------|
E|5-5-5-5-5-5------|2-2---2-3-3---3-|5-5---------------|2-2---2-3-3---3-|

G|-----------------|----------------|--------|
D|-----------0h7-5-|----4-----------|--------|
A|----------------7|----------------|--------|
E|5-5-5-5-5-5------|2-2---2-3-3-3-3-|3-3-3-3-|


Verse Pt 1
G|-----------------|
D|-----------------|
A|-----------------| x4
E|5-5----2-2--3-3--|

Verse Pt 2
         x3
G|-----------------|-----------------|
D|-----------------|-----------------|
A|-----------------|-----------------|
E|5-/-17---2-/-15--|5-/-17---2-2-3-3-|

Chorus
G|-----------------|----------------|------------------|----------------|
D|-----------0h7-5-|----4-------5---|----7-7-7-7-0h7-5-|----4-------5---|
A|----------------7|----------------|-----------------7|----------------|
E|5-5-5-5-5-5------|2-2---2-3-3---3-|5-5---------------|2-2---2-3-3---3-|

G|-----------------|----------------|------------------|----------------|-------|
D|-----------0h7-5-|----4-------5---|----7-7-7-7-0h7-5-|----4-----------|-------|
A|----------------7|----------------|-----------------7|----------------|-------|
E|5-5-5-5-5-5------|2-2---2-3-3---3-|5-5---------------|2-2---2-3-3-3-3-|3-3-3-3|

Verse Pt 1
Verse Pt 2
Chorus


Bridge (after 4 bars of rest)
G|----9----8-----7-----6-----5---|
D|7-7--7-7---7-7---7-7---7-7---7-|  x6
A|-------------------------------|
E|-------------------------------|

Bridge Pt 2
         x3
G|-----------------|------------------|
D|-----------------|------------------|
A|-----------------|------------------|
E|5-5----2-2--3-3--|5-5----2-2-2-3-3-3|

Rest for 8 bars

Chorus

Ending

G|---------------|---------------|
D|---------------|---------------|
A|---------------|---------------|
E|3-3-3-3-3-3-3-3|5--------------|
less
plus
Add to Songbook Print Version How to play lesson Submit videolesson
Click the best TAGS for this song:
None of them

If you can not find the chords or tabs you want, look at our partner E-chords. If you are a premium member, you have total access to our video lessons.

If you find a wrong Bad To Me from Reel Big Fish, click the correct button above.

login/signup
my songbooks
my recent views
my submits