Roxette

Listen To Your Heart tab

Roxette

Album:Look Sharp

Year:1990

tools Ultimate Tabs

Start AutoScroll Font Size Down Font Size Up

Find us on Facebook

chords
tabs
bass
ukulele keyboards
drums
flute
harmonica
guitar pro
video
Ultimate-Tabs

Listen To Your Heart

 
  intro: piano 
   
   Bm G A Bm G A Bm G A Bm G Em  
 
 
e --------5-3-2-----2--------5-2---------- 
b ------3-------5-3------2-3-----5-3------  
g ----4------------------------------4---- 
d ---------------------------------------- 
a --5------------------------------------- 
e ---------------------------------------- 
 
e ----------------- 
b -----2--5-3-2---- 
g -2-4----------4-- 
d ----------------- 
a -----------------  
e ----------------- 
 
 
e --------5-3-2-----2--------5-2---------- 
b ------3-------5-3------2-3-----5-3------  
g ----4------------------------------4---- 
d ---------------------------------------- 
a --5------------------------------------- 
e ---------------------------------------- 
 
e ------------- 
b ------------- 
g ----3-5------ 
d --4---------- 
a ------------- 
e ------------- 
 
   
less
plus
Add to Songbook Print Version How to play lesson Submit videolesson
Click the best TAGS for this song:
None of them
Contributor: 00Alcool Correct

If you can not find the chords or tabs you want, look at our partner E-chords. If you are a premium member, you have total access to our video lessons.

If you find a wrong Bad To Me from Roxette, click the correct button above.

login/signup
my songbooks
my recent views
my submits