RPM

Alvorada Voraz bass

RPM

Album:MTV - RPM 2002

Year:2002

tools Ultimate Tabs

Start AutoScroll Font Size Down Font Size Up

Find us on Facebook

chords tabs
bass
ukulele keyboards
drums
flute
harmonica
guitar pro
video
Ultimate-Tabs

Alvorada Voraz

Intro: 
                                
G|----------------------------------------------- 
D|-----------------------------------------------   2x 
A|---5-5-5-5-5-5-5-5-5-5--3-3-3-3-3-3-3-3-3-3-3--    
E|----------------------------------------------- 
 
na virada do século... 
 
                                                                               
G|------------------------------------------------------------------------------------- 
D|------------------------------------------------------------------------------------- 
A|---5---5-5---5---5-5----3---3-3---3---3-3----5---5-5---5---5-5----3---3-3---3---3-3-- 
E|------------------------------------------------------------------------------------- 
 
                                 
G|----------------------------------------------- 
D|-----------------------------------------------  2x 
A|---5-5-5-5-5-5-5-5-5-5--3-3-3-3-3-3-3-3-3-3-3-- 
E|----------------------------------------------- 
 
A fasse do mal... 
 
                          
G|------------------------------------------------------------------------------------------------ 
D|------------------------------------------------------------------------------------------------ 
A|---5---5-5---5---5-5----------------------------5---5-5---5---5-5------------------------------- 
E|----------------------------5---5-5---5---5-5---------------------------------5--5-5---5---5-5-- 
 
Fardas... 
   
G|----------------------------------------------------------------------------------------- 
D|----------------------------------------------------------------------------------------- 
A|----------------------------------------------------------------------------------------- 
E|-5---5-5---5---5-5---6---6-6---6---6-6---5---5-5---5---5-5---6---6-6---6---6-6----7-6-5-- 
 
Farsas e jogos... 
 
G|------------------------------------------------------------------------------------------------------------------------- 
D|------------------------------------------------------------------------------------------------------------------------- 
A|----------------------------------------------------------------------------------------------------3---3-3---3---3-3---- 
E|-5---5-5---5---5-5---6---6-6---6---6-6---5---5-5---5---5-5---6---6-6---6---6-6------------------------------------------- 
 
Nesse mundo assim... 
 
                       
G|-------------------------------------------------------------------------------------- 
D|-------------------------------------------------------------------------------------- 
A|---5---5-5---5---5-5----3---3-3---3---3-3----5---5-5---5---5-5----3---3-3---3---3-3--- 
E|-------------------------------------------------------------------------------------- 
 
(intro com o violão) 
 
G|------------------------------------------------------------------------------------- 
D|------------------------------------------------------------------------------------- 
A|---5---5-5---5---5-5----3---3-3---3---3-3----5---5-5---5---5-5----3---3-3---3---3-3-- 
E|------------------------------------------------------------------------------------- 
 
Apocaliticamente... 
 
G|------------------------------------------------------------------------------------- 
D|------------------------------------------------------------------------------------- 
A|---5---5-5---5---5-5----3---3-3---3---3-3----5---5-5---5---5-5----3---3-3---3---3-3-- 
E|------------------------------------------------------------------------------------- 
 
O caso... 
 
G|------------------------------------------------------------------------------------- 
D|------------------------------------------------------------------------------------- 
A|------------------------------------------------------------------------------------- 
E|-5-5---5---5-5---6---6-6---6---6-6---5---5-5---5---5-5---6---6-6---6---6-6----7-6-5-- 
 
E juram que não... 
     
G|---------------------------------------------------------------------------------------------------------------------- 
D|---------------------------------------------------------------------------------------------------------------------- 
A|--------------------------------------------------------------------------------------------------3---3-3---3---3-3--- 
E|---5-5---5---5-5---6---6-6---6---6-6---5---5-5---5---5-5---6---6-6---6---6-6------------------------------------------ 
 
Nesse mundo assim... 
 
                 
G|------------------------------------------------------------------------------------ 
D|------------------------------------------------------------------------------------ 
A|-5---5-5---5---5-5----3---3-3---3---3-3----5---5-5---5---5-5----3---3-3---3---3-3--- 
E|------------------------------------------------------------------------------------ 
 
final 
    
G|------------ 
D|------------ 
A|5----5-3-5-- 
E|------------ 
 
É simples de tocar pessoal se ficarem com duvidas mau 
e-mail é : [email protected] 
less
plus
Add to Songbook Print Version How to play lesson Submit videolesson
Click the best TAGS for this song:
None of them
Contributor: cjmueliz Correct

If you can not find the chords or tabs you want, look at our partner E-chords. If you are a premium member, you have total access to our video lessons.

If you find a wrong Bad To Me from RPM, click the correct button above.

login/signup
my songbooks
my recent views
my submits