RR300

Extremo tab

RR300

chords
tabs
bass
ukulele
keyboards
drums
flute
harmonica
guitar pro
video
Ultimate-Tabs

Extremo

         Riff 

E--------------------------------------------   
A--------------------------------------------   
D--------------------------------------------  2X 
G---------14----14---------------------------   
B------15----13----13-12---------------------   
e---12---------------------------------------   


E--------------------------------------------   
A--------------------------------------------   
D--------------------------------------------  2X 
G------------15----15------------------------   
B------15-14----14----13---------------------   
e---12--------------------------------------- 
         
( Repetir o RIFF 2 vezes ) 


 Base 


E---2-2--------------------------------------- 
A-------4------------------------------------- 
D--------------------------------------------- 
G--------------------------------------------- 
B--------------------------------------------- 
e--------------------------------------------- 
                                              
( obs: tocar com as cordas abafadas ) 

( Também a base pode ser tocada com a nota F# ou o bicorde dela ) 


Solo 
   
E---------------------------------------------- 
A---------------------------------------------- 
D---------------------------------------------- 
G---------------------------------------------- 
B---------------------------------------------- 
    T    /   \   ( 4X ) 
e---15--10-7-10-------------------------------- 



E---------------------------------------------- 
A---------------------------------------------- 
D---------------------------------------------- 
G---------------------------------------------- 
B---------------------------------------------- 
    T    /    \  ( 4X ) 
e---14--10 7 10-------------------------------- 


( O solo deve ser repetido 4 vezes ) 



Final 


E---12_2-2-2---3-5-7-------2------------------- 
A------------4-------3-5-7--------------------- 
D---------------------------------------------- 
G---------------------------------------------- 
B---------------------------------------------- 
e---------------------------------------------- 

   

 
less
plus
Add to Songbook Print Version How to play lesson Submit videolesson
Click the best TAGS for this song:
None of them
Contributor: webwBegu Correct

If you can not find the chords or tabs you want, look at our partner E-chords. If you are a premium member, you have total access to our video lessons.

If you find a wrong Bad To Me from RR300, click the correct button above.

login/signup
my songbooks
my recent views
my submits