Saint Vitus

Dying Inside chords

Saint Vitus

tools Ultimate Tabs

Start AutoScroll Font Size Down Font Size Up

Find us on Facebook

chords
tabs
bass
ukulele keyboards
drums
flute
harmonica
guitar pro
video
Ultimate-Tabs

Dying Inside

Intro 4x: 
E|------------------------------| 
A|------------------------------| 
D|------------------------------|  
G|------------------------------| 
B|--6-6/7--7-7/6--6-6/4--444/6--| 
E|--4-4/5--5-5/4--4-4/2--222/4--| 

Riff 1 2x: 
E|-------------------------------------| 
A|-------------------------------------| 
D|-------------------------------------| 
G|-----------------------------2h3p2---| 
B|--4/6---2h4-4-4--4/6---2h4-4-------4-| 
E|--2/4------------2/4-----------------| 

Verse: 
E|------------------------------------| 
A|------------------------------------| 
D|------------------------------------| 
G|----------------------------2h3p2---| 
B|-------2h4-4-4--------2h4-4-------4-| 
E|--2/4-----------2/4-----------------| 

Chorus 4x: 
E|------------------------------| 
A|------------------------------| 
D|------------------------------|  
G|------------------------------| 
B|--6-6/7--7-7/6--6-6/4--444/6--| 
E|--4-4/5--5-5/4--4-4/2--222/4--| 

(Solo)  
less
plus
Add to Songbook Print Version How to play lesson Submit videolesson
Click the best TAGS for this song:
None of them
Contributor: neilbonj Correct

If you can not find the chords or tabs you want, look at our partner E-chords. If you are a premium member, you have total access to our video lessons.

If you find a wrong Bad To Me from Saint Vitus, click the correct button above.

login/signup
my songbooks
my recent views
my submits