Sammy Hagar

Turn Up The Music tab

Sammy Hagar

tools Ultimate Tabs

Start AutoScroll Font Size Down Font Size Up

Find us on Facebook

chords
tabs
bass
ukulele
keyboards
drums
flute
harmonica
guitar pro
video
Ultimate-Tabs

Turn Up The Music

-----------------------------------------------------------------------------
                                  
                 Turn Up The Music - Sammy Hagar (GUITAR)
            
-----------------------------------------------------------------------------
Tabbed by: Scotto10

Tuning: Standard tuning

Uploaded Sep 09 2019

============================================================================= 
                                                              
Guitar 1

  Harmony - check "guitar 2" below for other part of harmony

     H        S S  E  Q       S S  E  Q    H         
E||-------------------7----|----------7----L--------|
B||-----------7------------|--7---------------------|
G||-------------9p-8-------|----9p-8----------------|
D||------------------------|------------------------|
A||------------------------|------------------------|
E||------------------------|------------------------|


  Q    S S  E  Q    S S  E     W                   S S  E  Q    S S  E  Q     
--L------------7------------|-------------------|----------7------------7----|
-------7------------7-------|-------------------|--7------------7------------|
---------9p-8---------9p-8--|--6----------------|----9p-8---------9p-8-------|
----------------------------|-------------------|----------------------------|
----------------------------|-------------------|----------------------------|
----------------------------|-------------------|----------------------------|


  H        Q    S S  E     Q    S S  E  H           H        S S  E  Q     
--L--------L------------|--7---------------------|-------------------7----|
----------------7-------|-------7----------------|-----------7------------|
------------------9p-8--|---------9p-8--6--------|--L----------9p-8-------|
------------------------|------------------------|------------------------|
------------------------|------------------------|------------------------|
------------------------|------------------------|------------------------|


  S S  E     E  E   E  E  E   E   E  E     Q.     E  H         
----------|-----------------------------|---------------------|
--7-------|-----------------------------|---------------------|
----9p-8--|--------------------------2--|--L------9--L--------|
----------|--------------------------2--|--L------9--L--------|
----------|--9--9--11--9-------------0--|--L------7--L--------|
----------|--7--7---7--7-----12\--L-----|---------0-----------|


  E  E   E  E  E   E   E  E     Q.     E  H         
-----------------------------|---------------------|
-----------------------------|---------------------|
--------------------------2--|--L------9--L--------|
--------------------------2--|--L------9--L--------|
--9--9--11--9-------------0--|--L------7--L--------|
--7--7---7--7-----12\--L-----|---------0-----------|


  E  E   E  E  E   E   E  E     Q.     E  H         
-----------------------------|---------------------|
-----------------------------|---------------------|
--------------------------2--|--L------9--L--------|
--------------------------2--|--L------9--L--------|
--9--9--11--9-------------0--|--L------7--L--------|
--7--7---7--7-----12\--L-----|---------0-----------|


  E  E   E  E  E   E   E  E     Q.     E  H           W                 
-----------------------------|---------------------|-------------------|
-----------------------------|---------------------|-------------------|
--------------------------2--|--L------9--L--------|--4----------------|
--------------------------2--|--L------9--L--------|--4----------------|
--9--9--11--9-------------0--|--L------7--L--------|--2----------------|
--7--7---7--7-----12\--L-----|---------0-----------|-------------------|


  H        Q.     E     E  E  Q    Q    E   E     Q    E  E  E  E  E  E   
---------------------|-------------------------|-------------------------|
---------------------|-------------------------|-------------------------|
--L--------L------2--|--2--2--L----L-------11--|--L-------2--2--2-----4--|
--L--------L------2--|--2--2--L----L-------11--|--L-------2--2--2-----4--|
--L--------L------0--|--0--0--L----L--------9--|--L-------0--0--0-----2--|
---------------------|-------------------------|-------------------------|


  W                   H        Q.     E     H        Q.     E   
-------------------|---------------------|---------------------|
-------------------|---------------------|---------------------|
--L----------------|--L--------L------2--|--L--------L---------|
--L----------------|--L--------L------2--|--L--------L------4--|
--L----------------|--L--------L------0--|--L--------L------4--|
-------------------|---------------------|------------------2--|


  Q    E  E  Q    E  E     H        E   S  S  S S  E      Q    Q     Q.     E   
------------------------|--------------12-12-12---12--|---L----L\--------------|
------------------------|--------------12-12-12---12--|---L----L\--------------|
----------2--L----------|-----------------------------|------------------------|
--L-------2--L-------2--|--L--------------------------|---------------------4--|
--L-------0--L-------2--|--L--------------------------|---------------------4--|
--L------------------0--|--L--------------------------|---------------------2--|


  W                   H.            E   E     E  E  E  E  E  E  E  E   
-------------------|-----------------------|--------------------------|
-------------------|-----------------------|--------------------------|
-------------------|--2s------------L--14--|--4--4--4--4-----2-----9--|
--L----------------|--2s------------L--14--|--4--4--4--4-----2-----9--|
--L----------------|-----------------------|--2--2--2--2-----0-----7--|
--L----------------|-----------------------|--------------------------|


  W                   E  E  E  E  E  E  E   E      E   E   E   E   Q     Q     
-------------------|----------------------------|-----------------------------|
-------------------|-----------------------22---|--L--22------22---L\---------|
--L----------------|--4--4--4--4-----2-----21b--|--L--21b-----21b--L\---------|
--L----------------|--4--4--4--4-----2----------|-----------------------------|
--L----------------|--2--2--2--2-----0----------|-----------------------------|
-------------------|----------------------------|-----------------------------|


  E  E  E  E  E  E  E  E     W                   E  E  Q    H         
--------------------------|-------------------|----------------------|
--------------------------|-------------------|----------------------|
--4--4--4--4-----2-----9--|--L----------------|--9-------------------|
--4--4--4--4-----2-----9--|--L----------------|--9-------------------|
--2--2--2--2-----0-----7--|--L----------------|--7-------------------|
--------------------------|-------------------|----------------------|


  E  E  E  E  E   E   E  E     Q.     E  H           E  E  E  E  E   E   E  E   
----------------------------|---------------------|----------------------------|
--4--4--5--4----------------|---------------------|--4--4--5--4----------------|
--4--4--4--4-------------2--|--L------9--L--------|--4--4--4--4-------------2--|
--4--4--4--4-------------2--|--L------9--L--------|--4--4--4--4-------------2--|
--2--2--2--2-------------0--|--L------7--L--------|--2--2--2--2-------------0--|
-----------------12\--L-----|---------0-----------|-----------------12\--L-----|


  Q.     E  H           W                   H        E  E   E  E   
---------------------|-------------------|--------------7---7--7--|
---------------------|-------------------|--------------7---7--7--|
--L------9--L--------|--4----------------|--L-----------9b--------|
--L------9--L--------|--4----------------|--L---------------------|
--L------7--L--------|--2----------------|--L---------------------|
---------0-----------|-------------------|------------------------|


   E  E  E   E   E  E   E    E     Q     S S E   E   E  Q     
--/7--7--7-------7--7---7----7--|----------------------------|
--/7--7--7--10b-----7--10b--10--|--7b----7---9b--L\----------|
--------------------------------|--7b----7---9b--L\----------|
--------------------------------|----------------------------|
--------------------------------|----------------------------|
--------------------------------|----------------------------|


  W                   H        Q.     E     H        Q    E  E   
-------------------|---------------------|----------------------|
-------------------|---------------------|----------------------|
--4----------------|--L--------L------2--|--L--------L----------|
--4----------------|--L--------L------2--|--L--------L-------4--|
--2----------------|--L--------L------0--|--L--------L-------4--|
-------------------|---------------------|-------------------2--|


                                                        PM PM PM      
  Q    E  E  Q    E  E     W                   H        E  E  E   E   
------------------------|-------------------|------------------------|
------------------------|-------------------|------------------------|
----------2--L-------9--|--L----------------|--L-----------------11--|
--L-------2--L-------9--|--L----------------|--L-----------------11--|
--L-------0--L-------7--|--L----------------|--L------------------9--|
--L---------------------|-------------------|-----------0--0--0------|


  W                   H.           Q        E  E  E  E  E  E  E  E   
-------------------|---------------------|--------------------------|
-------------------|---------------------|--------------------------|
--L----------------|--L------------------|--4--4--4--4-----2-----9--|
--L----------------|--L------------x\----|--4--4--4--4-----2-----9--|
--L----------------|--L------------x\----|--2--2--2--2-----0-----7--|
-------------------|---------------------|--------------------------|


  W                   E  E  E  E  E  E  E   E      E   E   E   E   Q     Q     
-------------------|----------------------------|-----------------------------|
-------------------|-----------------------22---|--L--22------22---L\---------|
--L----------------|--4--4--4--4-----2-----21b--|--L--21b-----21b--L\---------|
--L----------------|--4--4--4--4-----2----------|-----------------------------|
--L----------------|--2--2--2--2-----0----------|-----------------------------|
-------------------|----------------------------|-----------------------------|


  E  E  E  E  E  E  E  E     W                   E  E  Q    H         
--------------------------|-------------------|----------------------|
--------------------------|-------------------|----------------------|
--4--4--4--4-----2-----9--|--L----------------|--9-------------------|
--4--4--4--4-----2-----9--|--L----------------|--9-------------------|
--2--2--2--2-----0-----7--|--L----------------|--7-------------------|
--------------------------|-------------------|----------------------|


  E  E  E  E  E  E  E  E     W                   E  E  E  E  E  E  E  E   
--------------------------|-------------------|--------------------------|
--------------------------|-------------------|--------------------------|
--4--4--4--4-----2-----9--|--L----------------|--4--4--4--4-----2--------|
--4--4--4--4-----2-----9--|--L----------------|--4--4--4--4-----2--------|
--2--2--2--2-----0-----7--|--L----------------|--2--2--2--2-----0--------|
--------------------------|-------------------|-----------------------0--|


  E    E  E  E  E     E  Q        E  E  E  E  E  E  E   E      
----------7--7--9pbr--7--7\----|-----------------------15pbr--|
-----8g9-----------------------|------------------------------|
-------------------------------|--4--4--4--4-----2------------|
-------------------------------|--4--4--4--4-----2------------|
-------------------------------|--2--2--2--2-----0------------|
--L----------------------------|------------------------------|


  Q     E   E   E   E   Q        Q     Q    H                                 
--L----------------15--------|-----------------------|-----------|-----------|
-------12--15b--L------12----|--12\------------------|-----------|-----------|
-----------------------------|-----------------------|-----------|-----------|
-----------------------------|-----------------------|-----------|-----------|
-----------------------------|-----------------------|-----------|-----------|
-----------------------------|-----------------------|-----------|-----------|


-----------|-----------|-----------|-----------|-----------|-----------|
-----------|-----------|-----------|-----------|-----------|-----------|
-----------|-----------|-----------|-----------|-----------|-----------|
-----------|-----------|-----------|-----------|-----------|-----------|
-----------|-----------|-----------|-----------|-----------|-----------|
-----------|-----------|-----------|-----------|-----------|-----------|


                                                  W                 
-----------|-----------|-----------|-----------|-------------------|
-----------|-----------|-----------|-----------|-------------------|
-----------|-----------|-----------|-----------|--4----------------|
-----------|-----------|-----------|-----------|--4----------------|
-----------|-----------|-----------|-----------|--2----------------|
-----------|-----------|-----------|-----------|-------------------|


  W                   W                   W                 
-------------------|-------------------|-------------------|
-------------------|-------------------|-------------------|
--L----------------|--4----------------|--L----------------|
--L----------------|--4----------------|--L----------------|
--L----------------|--2----------------|--L----------------|
-------------------|-------------------|-------------------|


  E  E  E  E  E   E   E  E     Q.     E  H           E  E  E  E  E   E   E  E   
----------------------------|---------------------|----------------------------|
----------------------------|---------------------|----------------------------|
-------------------------2--|--L------9--L--------|-------------------------2--|
--4--4--6--4-------------2--|--L------9--L--------|--4--4--6--4-------------2--|
--2--2--2--2-------------0--|--L------7--L--------|--2--2--2--2-------------0--|
-----------------12\--L-----|---------0-----------|-----------------12\--L-----|


  Q.     E  H           E  E   E  E  E   E   E  E     Q.     E  H         
---------------------|-----------------------------|---------------------|
---------------------|-----------------------------|---------------------|
--L------9--L--------|--------------------------2--|--L------9--L--------|
--L------9--L--------|--------------------------2--|--L------9--L--------|
--L------7--L--------|--9--9--11--9-------------0--|--L------7--L--------|
---------0-----------|--7--7---7--7-----12\--L-----|---------0-----------|


  E  E   E  E  E   E   E  E     Q.     E  H         
-----------------------------|---------------------|
-----------------------------|---------------------|
--------------------------2--|--L------9--L--------|
--------------------------2--|--L------9--L--------|
--9--9--11--9-------------0--|--L------7--L--------|
--7--7---7--7-----12\--L-----|---------0-----------|


  E  E   E  E  E   E   E  E     Q.     E  H         
-----------------------------|---------------------|
-----------------------------|---------------------|
--------------------------2--|--L------9--L--------|
--------------------------2--|--L------9--L--------|
--9--9--11--9-------------0--|--L------7--L--------|
--7--7---7--7-----12\--L-----|---------0-----------|


  E  E   E  E  E  E  E  E  E   E   E  E     Q.     E  H         
-----------------------------------------|---------------------|
-----------------------------------------|---------------------|
--------------------------------------2--|--L------9--L--------|
---------------4--4--6--4-------------2--|--L------9--L--------|
--9--9--11--9--2--2--2--2-------------0--|--L------7--L--------|
--7--7---7--7-----------------12\--L-----|---------0-----------|


  W                   W                   W                   W                 
-------------------|-------------------|-------------------|-------------------|
-------------------|-------------------|-------------------|-------------------|
--4----------------|--L----------------|--2----------------|--L----------------|
--4----------------|--L----------------|--2----------------|--L----------------|
--2----------------|--L----------------|--0----------------|--L----------------|
-------------------|-------------------|-------------------|-------------------|


  W                   W                   W                   W                 
-------------------|-------------------|-------------------|-------------------|
-------------------|-------------------|-------------------|-------------------|
--4----------------|--L----------------|--2----------------|--L----------------|
--4----------------|--L----------------|--2----------------|--L----------------|
--2----------------|--L----------------|--0----------------|--L----------------|
-------------------|-------------------|-------------------|-------------------|


  W                   W                   W                   W                 
-------------------|-------------------|-------------------|-------------------|
-------------------|-------------------|-------------------|-------------------|
--4----------------|--L----------------|--2----------------|--L----------------|
--4----------------|--L----------------|--2----------------|--L----------------|
--2----------------|--L----------------|--0----------------|--L----------------|
-------------------|-------------------|-------------------|-------------------|


  W                   W                   W                   W                 
-------------------|-------------------|-------------------|-------------------|
-------------------|-------------------|-------------------|-------------------|
--4----------------|--L----------------|--2----------------|--L----------------|
--4----------------|--L----------------|--2----------------|--L----------------|
--2----------------|--L----------------|--0----------------|--L----------------|
-------------------|-------------------|-------------------|-------------------|


  W                   W                   W                   W                 
-------------------|-------------------|-------------------|-------------------|
-------------------|-------------------|-------------------|-------------------|
--4----------------|--L----------------|--2----------------|--L----------------|
--4----------------|--L----------------|--2----------------|--L----------------|
--2----------------|--L----------------|--0----------------|--L----------------|
-------------------|-------------------|-------------------|-------------------|


  W                   W                   W                 
-------------------|-------------------|-------------------|
-------------------|-------------------|-------------------|
--4----------------|--L----------------|--2----------------|
--4----------------|--L----------------|--2----------------|
--2----------------|--L----------------|--0----------------|
-------------------|-------------------|-------------------|


  W                  
-------------------||
-------------------||
--L----------------||
--L----------------||
--L----------------||
-------------------||


===============================================================================
===============================================================================
                                                              
Guitar 2




     H        S S E  Q       S S E  Q    H           Q    S S E  Q    S S E   
E||------------------7----|-----------------------|--------------7-----------|
B||------------------7----|-----------------------|--------------7-----------|
G||-----------8-6---------|--8-6----4----L--------|--L----8-6---------8-6----|
D||---------------9-------|------9--4----L--------|--L--------9-----------9--|
A||-----------------------|---------2----L--------|--L-----------------------|
E||-----------------------|-----------------------|--------------------------|


  W                   S S E  Q    S S E  Q       H.           S S E   
-------------------|--L------7-----------7----|--L-------------------|
-------------------|---------7-----------7----|--L-------------------|
--2----------------|--8-6---------8-6----4----|--L------------8-6----|
--7----------------|--L---9-----------9--4----|--L----------------9--|
--0----------------|--L------------------2----|--L-------------------|
-------------------|--------------------------|----------------------|


  Q    S S E  H           H        S S E  Q       S S E   
--7--------------------|------------------7----|---------|
--7--------------------|------------------7----|---------|
--L----8-6----2--------|--L--------8-6---------|--8-6----|
--L--------9--7--------|--L------------9-------|------9--|
--L-----------0--------|--L--------------------|---------|
-----------------------|-----------------------|---------|


  E  E  E  E  E   E   E  E     Q.     E  H           E  E  E  E  E   E   E  E   
----------------------------|---------------------|----------------------------|
--4--4--5--4----------------|---------------------|--4--4--5--4----------------|
--4--4--4--4-------------2--|--L------------------|--4--4--4--4-------------2--|
--4--4--6--4-------------2--|--L------2--L--------|--4--4--6--4-------------2--|
-------------------------0--|--L------2--L--------|-------------------------0--|
-----------------12\--L-----|---------0--L--------|-----------------12\--L-----|


  Q.     E  H           E  E  E  E  E   E   E  E     Q.     E  H         
---------------------|----------------------------|---------------------|
---------------------|--4--4--5--4----------------|---------------------|
--L------------------|--4--4--4--4-------------2--|--L------------------|
--L------2--L--------|--4--4--6--4-------------2--|--L------2--L--------|
--L------2--L--------|-------------------------0--|--L------2--L--------|
---------0--L--------|-----------------12\--L-----|---------0--L--------|


  E  E  E  E  E   E   E  E     Q.     E  H           W                 
----------------------------|---------------------|-------------------|
--4--4--5--4----------------|---------------------|-------------------|
--4--4--4--4-------------2--|--L------------------|--4----------------|
--4--4--6--4-------------2--|--L------2--L--------|--4----------------|
-------------------------0--|--L------2--L--------|--2----------------|
-----------------12\--L-----|---------0--L--------|-------------------|


  H        Q.     E     H        Q    E  E     Q    E  E  Q    E  E   
---------------------|----------------------|------------------------|
---------------------|----------------------|------------------------|
--L--------L------2--|--L--------L----------|----------2--L-------4--|
--L--------L------2--|--L--------L-------4--|--L-------2--L-------4--|
--L--------L------0--|--L--------L-------4--|--L-------0--L-------2--|
---------------------|-------------------2--|--L---------------------|


  W                   H        Q.     E     H        Q.     E   
-------------------|---------------------|---------------------|
-------------------|---------------------|---------------------|
--L----------------|--L--------L------2--|--L--------L---------|
--L----------------|--L--------L------2--|--L--------L------4--|
--L----------------|--L--------L------0--|--L--------L------4--|
-------------------|---------------------|------------------2--|


  Q    E  E  Q    E  E     W                   H        Q.     E   
------------------------|-------------------|---------------------|
------------------------|-------------------|---------------------|
----------2--L----------|-------------------|---------------------|
--L-------2--L-------2--|--L----------------|--L--------L------4--|
--L-------0--L-------2--|--L----------------|--L--------L------4--|
--L------------------0--|--L----------------|--L--------L------2--|


  W                   H        E  E  Q       E  E  E  E  E  E  E  E   
-------------------|----------------------|--------------------------|
-------------------|----------------------|--------------------------|
-------------------|----------------------|--4--4--4--4-----2--------|
--L----------------|--L--------4--4--4----|--4--4--4--4-----2-----2--|
--L----------------|--L--------4--4--4----|--2--2--2--2-----0-----2--|
--L----------------|--L--------2--2--2----|-----------------------0--|


  W                   E  E  E  E  E  E  E  E     W                 
-------------------|--------------------------|-------------------|
-------------------|--------------------------|-------------------|
-------------------|--4--4--4--4-----2--------|-------------------|
--L----------------|--4--4--4--4-----2-----2--|--L----------------|
--L----------------|--2--2--2--2-----0-----2--|--L----------------|
--L----------------|-----------------------0--|--L----------------|


  E  E  E  E  E  E  E  E     W                   E  E  Q    H         
--------------------------|-------------------|----------------------|
--------------------------|-------------------|----------------------|
--4--4--4--4-----2--------|-------------------|--9-------------------|
--4--4--4--4-----2-----2--|--L----------------|--9-------------------|
--2--2--2--2-----0-----2--|--L----------------|--7-------------------|
-----------------------0--|--L----------------|----------------------|


  E  E  E  E  E   E   E  E     Q.     E  H           E  E  E  E  E   E   E  E   
----------------------------|---------------------|----------------------------|
--4--4--5--4----------------|---------------------|--4--4--5--4----------------|
--4--4--4--4-------------2--|--L------------------|--4--4--4--4-------------2--|
--4--4--6--4-------------2--|--L------2--L--------|--4--4--6--4-------------2--|
-------------------------0--|--L------2--L--------|-------------------------0--|
-----------------12\--L-----|---------0--L--------|-----------------12\--L-----|


  Q.     E  H           W                   H        Q.     E   
---------------------|-------------------|---------------------|
---------------------|-------------------|---------------------|
--L------------------|-------------------|---------------------|
--L------2--L--------|--9----------------|--L--------L------7--|
--L------2--L--------|--9----------------|--L--------L------7--|
---------0--L--------|--7----------------|--L--------L------5--|


  H        Q    E  E     Q    E  Q    E  E  E     W                 
----------------------|------------------------|-------------------|
----------------------|------------------------|-------------------|
----------------------|------------------------|-------------------|
--L--------L-------4--|--L-------7----L-----9--|--9----------------|
--L--------L-------4--|--L-------7----L-----9--|--9----------------|
--L--------L-------2--|--L-------5----L-----7--|--7----------------|


  H        Q.     E     H        Q    E  E     Q    E  E  Q    E  E   
---------------------|----------------------|------------------------|
---------------------|----------------------|------------------------|
---------------------|----------------------|------------------------|
--L--------L------7--|--L--------L-------4--|--L-------7--L-------2--|
--L--------L------7--|--L--------L-------4--|--L-------7--L-------2--|
--L--------L------5--|--L--------L-------2--|--L-------5--L-------0--|


                               PM PM PM                         
  W                   H        E  E  E  E     W                 
-------------------|-----------------------|-------------------|
-------------------|-----------------------|-------------------|
-------------------|-----------------------|-------------------|
--L----------------|--L-----------------4--|--L----------------|
--L----------------|--L-----------------4--|--L----------------|
--L----------------|--L--------0--0--0--2--|--L----------------|


  W                   E  E  E  E  E  E  E  E     W                 
-------------------|--------------------------|-------------------|
-------------------|--------------------------|-------------------|
-------------------|--4--4--4--4-----2--------|-------------------|
--L----------------|--4--4--4--4-----2-----2--|--L----------------|
--L----------------|--2--2--2--2-----0-----2--|--L----------------|
--L----------------|-----------------------0--|--L----------------|


  E  E  E  E  E  E  E  E     W                   E  E  E  E  E  E  E  E   
--------------------------|-------------------|--------------------------|
--------------------------|-------------------|--------------------------|
--4--4--4--4-----2--------|-------------------|--4--4--4--4-----2--------|
--4--4--4--4-----2-----2--|--L----------------|--4--4--4--4-----2-----2--|
--2--2--2--2-----0-----2--|--L----------------|--2--2--2--2-----0-----2--|
-----------------------0--|--L----------------|-----------------------0--|


  W                   E  E  Q    H           E  E  E  E  E  E  E  E   
-------------------|----------------------|--------------------------|
-------------------|----------------------|--------------------------|
-------------------|--9-------------------|--4--4--4--4-----2--------|
--L----------------|--9-------------------|--4--4--4--4-----2-----2--|
--L----------------|--7-------------------|--2--2--2--2-----0-----2--|
--L----------------|----------------------|-----------------------0--|


  W                   E  E  E  E  E  E  E  E     W                 
-------------------|--------------------------|-------------------|
-------------------|--------------------------|-------------------|
-------------------|--4--4--4--4-----2--------|-------------------|
--L----------------|--4--4--4--4-----2-----2--|--L----------------|
--L----------------|--2--2--2--2-----0-----2--|--L----------------|
--L----------------|-----------------------0--|--L----------------|


  E  E  E  E  E  E  E  E     W                   E  E  Q    H         
--------------------------|-------------------|----------------------|
--------------------------|-------------------|----------------------|
--4--4--4--4-----2--------|-------------------|--9-------------------|
--4--4--4--4-----2-----2--|--L----------------|--9-------------------|
--2--2--2--2-----0-----2--|--L----------------|--7-------------------|
-----------------------0--|--L----------------|----------------------|


-----------|-----------|-----------|-----------|-----------|-----------|
-----------|-----------|-----------|-----------|-----------|-----------|
-----------|-----------|-----------|-----------|-----------|-----------|
-----------|-----------|-----------|-----------|-----------|-----------|
-----------|-----------|-----------|-----------|-----------|-----------|
-----------|-----------|-----------|-----------|-----------|-----------|


-----------|-----------|-----------|-----------|-----------|-----------|
-----------|-----------|-----------|-----------|-----------|-----------|
-----------|-----------|-----------|-----------|-----------|-----------|
-----------|-----------|-----------|-----------|-----------|-----------|
-----------|-----------|-----------|-----------|-----------|-----------|
-----------|-----------|-----------|-----------|-----------|-----------|


                                                  E  E  E  E  E   E   E  E   
-----------|-----------|-----------|-----------|----------------------------|
-----------|-----------|-----------|-----------|--4--4--5--4----------------|
-----------|-----------|-----------|-----------|--4--4--4--4-------------2--|
-----------|-----------|-----------|-----------|--4--4--6--4-------------2--|
-----------|-----------|-----------|-----------|-------------------------0--|
-----------|-----------|-----------|-----------|-----------------12\--L-----|


  Q.     E  H           Q    E  E  E   E   E  E     Q.     E  H         
---------------------|---------------------------|---------------------|
---------------------|--4----5--4----------------|---------------------|
--L------------------|--4----4--4-------------2--|--L------------------|
--L------2--L--------|--4----6--4-------------2--|--L------2--L--------|
--L------2--L--------|------------------------0--|--L------2--L--------|
---------0--L--------|----------------12\--L-----|---------0--L--------|


  Q    E  E  E   E   E  E     Q.     E  H           Q    E  E  E   E   E  E   
---------------------------|---------------------|---------------------------|
--4----5--4----------------|---------------------|--4----5--4----------------|
--4----4--4-------------2--|--L------------------|--4----4--4-------------2--|
--4----6--4-------------2--|--L------2--L--------|--4----6--4-------------2--|
------------------------0--|--L------2--L--------|------------------------0--|
----------------12\--L-----|---------0--L--------|----------------12\--L-----|


  Q.     E  H           Q    E  E  E   E   E  E     Q.     E  H         
---------------------|---------------------------|---------------------|
---------------------|--4----5--4----------------|---------------------|
--L------------------|--4----4--4-------------2--|--L------------------|
--L------2--L--------|--4----6--4-------------2--|--L------2--L--------|
--L------2--L--------|------------------------0--|--L------2--L--------|
---------0--L--------|----------------12\--L-----|---------0--L--------|


                                                                    PM  
  Q    E  E  E   E   E  E     Q.     E  H           H.           E  E   
---------------------------|---------------------|---------------------|
--4----5--4----------------|---------------------|---------------------|
--4----4--4-------------2--|--L------------------|--4------------L-----|
--4----6--4-------------2--|--L------2--L--------|--4------------L-----|
------------------------0--|--L------2--L--------|--2------------L--2--|
----------------12\--L-----|---------0--L--------|---------------------|


  PM PM PM PM PM PM PM PM                    PM    PM PM PM PM PM PM PM PM  
  E  E  E  E  E  E  E  E     H.           E  E     E  E  E  E  E  E  E  E   
--------------------------|---------------------|--------------------------|
--------------------------|---------------------|--------------------------|
--------------------------|--2------------L-----|--------------------------|
--------------------------|--2------------L-----|--------------------------|
--2--2--2--2--2--2--2--2--|--0------------L--0--|--0--0--0--0--0--0--0--0--|
--------------------------|---------------------|--------------------------|


                  PM    PM PM PM PM PM PM PM PM                    PM  
  H.           E  E     E  E  E  E  E  E  E  E     H.           E  E   
---------------------|--------------------------|---------------------|
---------------------|--------------------------|---------------------|
--4------------L-----|--------------------------|--2------------L-----|
--4------------L-----|--------------------------|--2------------L-----|
--2------------L--2--|--2--2--2--2--2--2--2--2--|--0------------L--0--|
---------------------|--------------------------|---------------------|


  PM PM PM PM PM PM PM PM                 PM PM    PM PM PM PM PM PM PM PM  
  E  E  E  E  E  E  E  E     H.           E  E     E  E  E  E  E  E  E  E   
--------------------------|---------------------|--------------------------|
--------------------------|---------------------|--------------------------|
--------------------------|--4------------------|--------------------------|
--------------------------|--4------------------|--------------------------|
--0--0--0--0--0--0--0--0--|--2------------2--2--|--2--2--2--2--2--2--2--2--|
--------------------------|---------------------|--------------------------|


               PM PM    PM PM PM PM PM PM PM PM  
  H.           E  E     E  E  E  E  E  E  E  E   
---------------------|--------------------------|
---------------------|--------------------------|
--2------------------|--------------------------|
--2------------------|--------------------------|
--0------------0--0--|--0--0--0--0--0--0--0--0--|
---------------------|--------------------------|


  PM PM PM PM PM PM PM PM PM PM PM PM    PM PM PM PM PM PM PM PM PM PM PM PM  
  E  S  S  E  S  S  E  S  S  E  S  S     E  S  S  E  S  S  E  S  S  E  S  S   
--------------------------------------|--------------------------------------|
--------------------------------------|--------------------------------------|
--------------------------------------|--------------------------------------|
--------------------------------------|--------------------------------------|
--2--2--2--2--2--2--2--2--2--2--2--2--|--2--2--2--2--2--2--2--2--2--2--2--2--|
--------------------------------------|--------------------------------------|


  PM PM PM PM PM PM PM PM PM PM PM PM    PM PM PM PM PM PM PM PM PM PM PM PM  
  E  S  S  E  S  S  E  S  S  E  S  S     E  S  S  E  S  S  E  S  S  E  S  S   
--------------------------------------|--------------------------------------|
--------------------------------------|--------------------------------------|
--------------------------------------|--------------------------------------|
--------------------------------------|--------------------------------------|
--0--0--0--0--0--0--0--0--0--0--0--0--|--0--0--0--0--0--0--0--0--0--0--0--0--|
--------------------------------------|--------------------------------------|


  PM PM PM PM PM PM PM PM PM PM PM PM    PM PM PM PM PM PM PM PM PM PM PM PM  
  E  S  S  E  S  S  E  S  S  E  S  S     E  S  S  E  S  S  E  S  S  E  S  S   
--------------------------------------|--------------------------------------|
--------------------------------------|--------------------------------------|
--------------------------------------|--------------------------------------|
--------------------------------------|--------------------------------------|
--2--2--2--2--2--2--2--2--2--2--2--2--|--2--2--2--2--2--2--2--2--2--2--2--2--|
--------------------------------------|--------------------------------------|


  PM PM PM PM PM PM PM PM PM PM PM PM    PM PM PM PM PM PM PM PM PM PM PM PM  
  E  S  S  E  S  S  E  S  S  E  S  S     E  S  S  E  S  S  E  S  S  E  S  S   
--------------------------------------|--------------------------------------|
--------------------------------------|--------------------------------------|
--------------------------------------|--------------------------------------|
--------------------------------------|--------------------------------------|
--0--0--0--0--0--0--0--0--0--0--0--0--|--0--0--0--0--0--0--0--0--0--0--0--0--|
--------------------------------------|--------------------------------------|


  PM PM PM PM PM PM PM PM PM PM PM PM    PM PM PM PM PM PM PM PM PM PM PM PM  
  E  S  S  E  S  S  E  S  S  E  S  S     E  S  S  E  S  S  E  S  S  E  S  S   
--------------------------------------|--------------------------------------|
--------------------------------------|--------------------------------------|
--------------------------------------|--------------------------------------|
--------------------------------------|--------------------------------------|
--2--2--2--2--2--2--2--2--2--2--2--2--|--2--2--2--2--2--2--2--2--2--2--2--2--|
--------------------------------------|--------------------------------------|


  PM PM PM PM PM PM PM PM PM PM PM PM    PM PM PM PM PM PM PM PM PM PM PM PM   
  E  S  S  E  S  S  E  S  S  E  S  S     E  S  S  E  S  S  E  S  S  E  S  S    
--------------------------------------|--------------------------------------||
--------------------------------------|--------------------------------------||
--------------------------------------|--------------------------------------||
--------------------------------------|--------------------------------------||
--0--0--0--0--0--0--0--0--0--0--0--0--|--0--0--0--0--0--0--0--0--0--0--0--0--||
--------------------------------------|--------------------------------------||




Duration Legend
---------------
W - whole
H - half
Q - quarter
E - 8th
S - 16th
T - 32nd
X - 64th
. - note dotted
|-n-|  - n-tuplets


Tablature Legend
----------------
L - tied note
x - dead note
g - grace note
(n) - ghost note
> - accentuded note
NH - natural harmonic
AH - artificial harmonic
TH - tapped harmonic
SH - semi harmonic
PH - pitch harmonic
h - hammer on
p - pull off
b - bend
br - bendRelease
pb - preBend
pbr - preBendRelease
brb - bendReleaseBend

/ - tremolo bar dip

 - tremolo bar dive
-/n - tremolo bar Release up
/n\ - tremolo bar inverted dip
/n - tremolo bar return
-
 - tremolo bar Release down
S - shift slide
s - legato slide
/ -  slide into from below or out of upwards
\ -  slide into from above or out of downwards
~ - vibrato
W - wide vibrato
tr - trill
TP - tremolo picking
T - tapping
S - slap
P - pop
< - fade in
^ - brush up
v - brush down




less
plus
Add to Songbook Print Version How to play lesson Submit videolesson
Click the best TAGS for this song:
None of them
Contributor: Anonymous Correct

If you can not find the chords or tabs you want, look at our partner E-chords. If you are a premium member, you have total access to our video lessons.

If you find a wrong Bad To Me from Sammy Hagar, click the correct button above.

login/signup
my songbooks
my recent views
my submits